Shred

01234567891011121314151617181920212223
E
B
G
D
A
E
B
0 1 2 3 4 5 6 7 8 9 10 11 12 13 14 15 16 17 18 19 20 21 22 23
(/) Slide Up  (\) Slide Down  (h) Hammer On  (p) Pull Off  (b) Bend (r) Release (v) Vibrato

Stave 1:

E|-------------------------------------------------------------------------------------------------------
B|-------------------------------------------------------------------------------------------3-5-6/17-15-
G|-9---10-9p10p9-7-12-10-9------------------10-9---------------------------------------2-4-5-------------
D|---7---------------------12-10----9-10-12------12-10-9----7-5-3-2--------------2-3-5-------------------
A|------------------------------------------------------------------5-3----2-3-5-------------------------
E|-------------------------------------------------------------------------------------------------------

Stave 2:

E|-15-13-12----------------------------------------------------------
B|----------15-13----12-13-12-13-12-13-12-13-12-13----10-8-6-5-3-1-0-
G|-------------------------------------------------------------------
D|-------------------------------------------------------------------
A|-------------------------------------------------------------------
E|-------------------------------------------------------------------

Stave 3:

E|------8-12-8----------1-5-1---------7-10-7-----------12-15-12-----------5-8-5---------1-5-1---------4-7-4-----
B|---10--------10-----3-------3-----8--------8------13----------13------6-------6-----3-------3-----5-------5---
G|-9--------------9-2-----------2-7------------7-12----------------12-5-----------5-2-----------2-4-----------4-
D|--------------------------------------------------------------------------------------------------------------
A|--------------------------------------------------------------------------------------------------------------
E|--------------------------------------------------------------------------------------------------------------

Stave 4:

E|-------------------------------------------------------------------
B|-------------------------------------------------------------------
G|---------------------------------------10-7-9-10-9-5-7-9-7-4-5-7-5-
D|----9-10-12-14-12-12-10-9-7-9-10-9-7-6-----------------------------
A|-12----------------------------------------------------------------
E|-------------------------------------------------------------------

							http://www.guitartabcreator.com
Chords

Instruments
{"strings":[[[".",".",".",".",".",".",".",".",".",".",".",".",".",".","_",".",".",".",".",".",".",".",".","_",".",".",".",".",".",".","_",".",".",".",".",".",".",".",".",".",".",".",".",".",".","."],[".",".",".",".",".",".",".",".",".",".",".",".",".",".","_",".",".",".",".",".",".",".",".","_",".",".",".",".",".",".","_",".",".",".",".",".",".",".",".",".",3,5,6,"/",17,15],[9,".",10,9,"p",10,"p",9,7,12,10,9,".",".","_",".",".",".",10,9,".",".",".","_",".",".",".",".",".",".","_",".",".",".",".",".",".",2,4,5,".",".",".",".",".","."],[".",7,".",".",".",".",".",".",".",".",".",".",12,10,"_",9,10,12,".",".",12,10,9,"_",7,5,3,2,".",".","_",".",".",".",2,3,5,".",".",".",".",".",".",".",".","."],[".",".",".",".",".",".",".",".",".",".",".",".",".",".","_",".",".",".",".",".",".",".",".","_",".",".",".",".",5,3,"_",2,3,5,".",".",".",".",".",".",".",".",".",".",".","."],[".",".",".",".",".",".",".",".",".",".",".",".",".",".","_",".",".",".",".",".",".",".",".","_",".",".",".",".",".",".","_",".",".",".",".",".",".",".",".",".",".",".",".",".",".","."]],[[15,13,12,".",".","_",".",".",".",".",".",".",".",".",".",".","_",".",".",".",".",".",".","."],[".",".",".",15,13,"_",12,13,12,13,12,13,12,13,12,13,"_",10,8,6,5,3,1,0],[".",".",".",".",".","_",".",".",".",".",".",".",".",".",".",".","_",".",".",".",".",".",".","."],[".",".",".",".",".","_",".",".",".",".",".",".",".",".",".",".","_",".",".",".",".",".",".","."],[".",".",".",".",".","_",".",".",".",".",".",".",".",".",".",".","_",".",".",".",".",".",".","."],[".",".",".",".",".","_",".",".",".",".",".",".",".",".",".",".","_",".",".",".",".",".",".","."]],[[".",".",8,12,8,".",".",".",".",1,5,1,".",".",".",".",7,10,7,".",".",".",".",12,15,12,".",".",".",".",5,8,5,".",".",".",".",1,5,1,".",".",".",".",4,7,4,".","."],[".",10,".",".",".",10,".",".",3,".",".",".",3,".",".",8,".",".",".",8,".",".",13,".",".",".",13,".",".",6,".",".",".",6,".",".",3,".",".",".",3,".",".",5,".",".",".",5,"."],[9,".",".",".",".",".",9,2,".",".",".",".",".",2,7,".",".",".",".",".",7,12,".",".",".",".",".",12,5,".",".",".",".",".",5,2,".",".",".",".",".",2,4,".",".",".",".",".",4],[".",".",".",".",".",".",".",".",".",".",".",".",".",".",".",".",".",".",".",".",".",".",".",".",".",".",".",".",".",".",".",".",".",".",".",".",".",".",".",".",".",".",".",".",".",".",".",".","."],[".",".",".",".",".",".",".",".",".",".",".",".",".",".",".",".",".",".",".",".",".",".",".",".",".",".",".",".",".",".",".",".",".",".",".",".",".",".",".",".",".",".",".",".",".",".",".",".","."],[".",".",".",".",".",".",".",".",".",".",".",".",".",".",".",".",".",".",".",".",".",".",".",".",".",".",".",".",".",".",".",".",".",".",".",".",".",".",".",".",".",".",".",".",".",".",".",".","."]],[[".",".",".",".",".",".",".",".",".",".",".",".",".",".",".",".",".",".",".",".",".",".",".",".",".",".",".","."],[".",".",".",".",".",".",".",".",".",".",".",".",".",".",".",".",".",".",".",".",".",".",".",".",".",".",".","."],[".",".",".",".",".",".",".",".",".",".",".",".",".",".",".",10,7,9,10,9,5,7,9,7,4,5,7,5],[".",9,10,12,14,12,12,10,9,7,9,10,9,7,6,".",".",".",".",".",".",".",".",".",".",".",".","."],[12,".",".",".",".",".",".",".",".",".",".",".",".",".",".",".",".",".",".",".",".",".",".",".",".",".",".","."],[".",".",".",".",".",".",".",".",".",".",".",".",".",".",".",".",".",".",".",".",".",".",".",".",".",".",".","."]]],"numberofstrings":6,"notes":["E","B","G","D","A","E","B"],"capo":0,"stringnotes":["E4","B3","G3","D3","A2","E2"],"comments":["Stave 1:","Stave 2:","Stave 3:","Stave 4:"],"timing":[[null,null,null,null,null,null,null,null,null,null,null,null,null,null,null,null,null,null,null,null,null,null,null,null,null,null,null,null,null,null,null,null,null,null,null,null,null,null,null,null,null,null,null,null,null,null],[null,null,null,null,null,null,null,null,null,null,null,null,null,null,null,null,null,null,null,null,null,null,null,null],[null,null,null,null,null,null,null,null,null,null,null,null,null,null,null,null,null,null,null,null,null,null,null,null,null,null,null,null,null,null,null,null,null,null,null,null,null,null,null,null,null,null,null,null,null,null,null,null,null],[null,null,null,null,null,null,null,null,null,null,null,null,null,null,null,null,null,null,null,null,null,null,null,null,null,null,null,null]],"timingvisible":false,"tabcounter":28,"stave":3,"totalstaves":4,"instrument":"6guitar","selectedtuning":"6_standard","version":"13"}

Member for

4 months 2 weeks
About Me
Neoclassical guitarist
Submitted by tofusiewjack on Sun, 2020-10-04 09:20