shostakovich

01234567891011121314151617181920212223
E
B
G
D
A
E
B
0 1 2 3 4 5 6 7 8 9 10 11 12 13 14 15 16 17 18 19 20 21 22 23
(/) Slide Up  (\) Slide Down  (h) Hammer On  (p) Pull Off  (b) Bend (r) Release (v) Vibrato

Stave 1:

E|--15----------------------------------15--16--15--13-----13--------------------------13--16--15--13--11--10--11--
B|------16--15----------15--16------16-------------------------15--------------13--15------------------------------
G|--------------17--17----------17---------------------------------15--13--15--------------------------------------
D|-----------------------------------------------------------------------------------------------------------------
A|-----------------------------------------------------------------------------------------------------------------
E|-----------------------------------------------------------------------------------------------------------------

Stave 2:

E|--11--8------------------8--11--10--7--------------------------------5--7--8--
B|---------9--8------8--9----------------9--8-----------------5--6--8-----------
G|---------------10----------------------------------5--7--8--------------------
D|------------------------------------------------------------------------------
A|------------------------------------------------------------------------------
E|------------------------------------------------------------------------------

							http://www.guitartabcreator.com
Chords

Instruments
{"strings":[[[15,".",".",".",".",".",".",".",".",15,16,15,13,"_",13,".",".",".",".",".",".",13,16,15,13,11,10,11],[".",16,15,".",".",15,16,".",16,".",".",".",".","_",".",15,".",".",".",13,15,".",".",".",".",".",".","."],[".",".",".",17,17,".",".",17,".",".",".",".",".","_",".",".",15,13,15,".",".",".",".",".",".",".",".","."],[".",".",".",".",".",".",".",".",".",".",".",".",".","_",".",".",".",".",".",".",".",".",".",".",".",".",".","."],[".",".",".",".",".",".",".",".",".",".",".",".",".","_",".",".",".",".",".",".",".",".",".",".",".",".",".","."],[".",".",".",".",".",".",".",".",".",".",".",".",".","_",".",".",".",".",".",".",".",".",".",".",".",".",".","."]],[[11,8,".",".",".",".",".",8,11,10,7,".",".","_","_",".",".",".",".",".",".",5,7,8],[".",".",9,8,".",8,9,".",".",".",".",9,8,"_","_",".",".",".",5,6,8,".",".","."],[".",".",".",".",10,".",".",".",".",".",".",".",".","_","_",5,7,8,".",".",".",".",".","."],[".",".",".",".",".",".",".",".",".",".",".",".",".","_","_",".",".",".",".",".",".",".",".","."],[".",".",".",".",".",".",".",".",".",".",".",".",".","_","_",".",".",".",".",".",".",".",".","."],[".",".",".",".",".",".",".",".",".",".",".",".",".","_","_",".",".",".",".",".",".",".",".","."]]],"numberofstrings":6,"notes":["E","B","G","D","A","E","B"],"capo":0,"stringnotes":["E4","B3","G3","D3","A2","E2"],"comments":["Stave 1:","Stave 2:"],"timing":[["W","W","W","W","W","W","W","W","W","W","W","W","W",null,"W","W","W","W","W","W","W","W","W","W","W","W","W","W"],["W","W","W","W","W","W","W","W","W","W","W","W","W","W","W","W","W","W","W","W","W","W","W","W"]],"timingvisible":false,"tabcounter":24,"stave":1,"totalstaves":2,"instrument":"6guitar","selectedtuning":"6_standard","version":"13"}

Member for

4 months 2 weeks
About Me
Neoclassical guitarist
Submitted by tofusiewjack on Mon, 2020-11-23 08:19