Creep Shred

01234567891011121314151617181920212223
E
B
G
D
A
E
B
0 1 2 3 4 5 6 7 8 9 10 11 12 13 14 15 16 17 18 19 20 21 22 23
(/) Slide Up  (\) Slide Down  (h) Hammer On  (p) Pull Off  (b) Bend (r) Release (v) Vibrato

Stave 1:

E|----------7-10-7----------------------11-14-11-------------------------12-------------------------11-------------
B|--------8--------8-----------------12----------12-------------------13----13-------------------13----13----------
G|------7------------7------------11----------------11-------------12----------12-------------12----------12-------
D|----9----------------9-------13----------------------13----10-14----------------14-10-10-13----------------13-10-
A|-10--------------------10-14----------------------------14-------------------------------------------------------
E|-----------------------------------------------------------------------------------------------------------------

Stave 2:

E|-17-15-14-15------15-14-15-12-15------15----15----------15----15-17-15-14----13-12-11----------------15-17-15-14-15-12------10-9-8-
B|-------------15------------------15------14----12-13-------12-------------------------------------12-------------------------------
G|-----------------------------------------------------12----------------------------------------14----------------------------------
D|--------------------------------------------------------------------------------------------13-------------------------------------
A|-----------------------------------------------------------------------------------------14----------------------------------------
E|-----------------------------------------------------------------------------------------------------------------------------------

Stave 3:

E|-15-17-15-14-15-------------17-15-14-15-------------15----------15-17-15-14----14----15-17-15-14-15-12----------15-17-15-14-15----
B|----------------16-15-13----------------15-15-13-12----13-12----------------12----------------------------13-------------------16-
G|----------------------------------------------------------------------------------------------------------------------------------
D|----------------------------------------------------------------------------------------------------------------------------------
A|----------------------------------------------------------------------------------------------------------------------------------
E|----------------------------------------------------------------------------------------------------------------------------------

Stave 4:

E|-3-3-3-5-5-5-7-7-7----7----3-3-3-5-5-5-7-7-7-7----------7-7-7-8-7-7-7-7---8---------------------
B|-----------------------------------------------7-5-4--------------------8--------8-10-8-10p11-8-
G|-------------------------------------------------------------------------------9----------------
D|------------------------------------------------------------------------------------------------
A|------------------------------------------------------------------------------------------------
E|------------------------------------------------------------------------------------------------

Stave 5:

E|-17-15-14-15-------------15----------------15-17-15-14-------------14----15-17-15-14-15-------15-15-17-15-14-15----------------15----------
B|-------------15-15-13-12-------13----13-------------------------12----------------------16----------------------15-15-15-13-12-------13-12-
G|----------------------------------12-------------------------14----------------------------------------------------------------------------
D|----------------------------------------------------------13-------------------------------------------------------------------------------
A|-------------------------------------------------------14----------------------------------------------------------------------------------
E|-------------------------------------------------------------------------------------------------------------------------------------------

Stave 6:

E|-15-17-15-14-19h--15-17-17-15-14-15-12----15-17-15-17-----18--------5-7-7----5-7-7---7----7-7-7-8-7-7-8---8----------------
B|-----------------------------------------------------------------------------------7--------------------8--------8-10-8-10-
G|---------------------------------------------------------------------------------------------------------------9-----------
D|---------------------------------------------------------------------------------------------------------------------------
A|---------------------------------------------------------------------------------------------------------------------------
E|---------------------------------------------------------------------------------------------------------------------------

Stave 7:

E|-10-8-8-10-8----15-17-15-14-19h5-3-2----3-5-3-3---1-3-5-5-3-2---17-15-14-15-12----3-5-2-3------3-5-3-2---------2----
B|------------------------------------------------4-------------4---------------------------3------------------0------
G|-----------------------------------------------------------------------------------------------------------2--------
D|---------------------------------------------------------------------------------------------------------1----------
A|-------------------------------------------------------------------------------------------------------2------------
E|--------------------------------------------------------------------------------------------------------------------

Stave 8:

E|-3-5-3-2-3-0----3-5-3-2-3------3-5-7-7----3-5-7-7----------7-7-8-7---8--------8------------------------8-10-12-12-
B|--------------------------4-----------------------7----------------8--------8--------8-10-8-10-11-8---------------
G|----------------------------------------------------9-8-------------------9--------9------------------------------
D|-----------------------------------------------------------------------10-----------------------------------------
A|------------------------------------------------------------------------------------------------------------------
E|------------------------------------------------------------------------------------------------------------------

							http://www.guitartabcreator.com
Chords

Tab Notes
15 17 15 17 18 15 - 6 3 2 (Stave 6)
Instruments
{"strings":[[[".",".",".",".",7,10,7,".",".",".",".",".",".",".",".",11,14,11,".",".",".",".",".",".",".",".",12,".",".",".",".",".",".",".",".",11,".",".",".","."],[".",".",".",8,".",".",".",8,".",".",".",".",".",".",12,".",".",".",12,".",".",".",".",".",".",13,".",13,".",".",".",".",".",".",13,".",13,".",".","."],[".",".",7,".",".",".",".",".",7,".",".",".",".",11,".",".",".",".",".",11,".",".",".",".",12,".",".",".",12,".",".",".",".",12,".",".",".",12,".","."],[".",9,".",".",".",".",".",".",".",9,".",".",13,".",".",".",".",".",".",".",13,".",10,14,".",".",".",".",".",14,10,10,13,".",".",".",".",".",13,10],[10,".",".",".",".",".",".",".",".",".",10,14,".",".",".",".",".",".",".",".",".",14,".",".",".",".",".",".",".",".",".",".",".",".",".",".",".",".",".","."],[".",".",".",".",".",".",".",".",".",".",".",".",".",".",".",".",".",".",".",".",".",".",".",".",".",".",".",".",".",".",".",".",".",".",".",".",".",".",".","."]],[[17,15,14,15,".",".",15,14,15,12,15,".",".",15,".",15,".",".",".",15,".",15,17,15,14,"_",13,12,11,"_",".",".",".",".",15,17,15,14,15,12,".","_",10,9,8],[".",".",".",".",15,".",".",".",".",".",".",15,".",".",14,".",12,13,".",".",12,".",".",".",".","_",".",".",".","_",".",".",".",12,".",".",".",".",".",".",".","_",".",".","."],[".",".",".",".",".",".",".",".",".",".",".",".",".",".",".",".",".",".",12,".",".",".",".",".",".","_",".",".",".","_",".",".",14,".",".",".",".",".",".",".",".","_",".",".","."],[".",".",".",".",".",".",".",".",".",".",".",".",".",".",".",".",".",".",".",".",".",".",".",".",".","_",".",".",".","_",".",13,".",".",".",".",".",".",".",".",".","_",".",".","."],[".",".",".",".",".",".",".",".",".",".",".",".",".",".",".",".",".",".",".",".",".",".",".",".",".","_",".",".",".","_",14,".",".",".",".",".",".",".",".",".",".","_",".",".","."],[".",".",".",".",".",".",".",".",".",".",".",".",".",".",".",".",".",".",".",".",".",".",".",".",".","_",".",".",".","_",".",".",".",".",".",".",".",".",".",".",".","_",".",".","."]],[[15,17,15,14,15,".",".",".","_",17,15,14,15,".",".",".",".",15,".",".","_",15,17,15,14,".",14,"_",15,17,15,14,15,12,"_",".","_",15,17,15,14,15,"."],[".",".",".",".",".",16,15,13,"_",".",".",".",".",15,15,13,12,".",13,12,"_",".",".",".",".",12,".","_",".",".",".",".",".",".","_",13,"_",".",".",".",".",".",16],[".",".",".",".",".",".",".",".","_",".",".",".",".",".",".",".",".",".",".",".","_",".",".",".",".",".",".","_",".",".",".",".",".",".","_",".","_",".",".",".",".",".","."],[".",".",".",".",".",".",".",".","_",".",".",".",".",".",".",".",".",".",".",".","_",".",".",".",".",".",".","_",".",".",".",".",".",".","_",".","_",".",".",".",".",".","."],[".",".",".",".",".",".",".",".","_",".",".",".",".",".",".",".",".",".",".",".","_",".",".",".",".",".",".","_",".",".",".",".",".",".","_",".","_",".",".",".",".",".","."],[".",".",".",".",".",".",".",".","_",".",".",".",".",".",".",".",".",".",".",".","_",".",".",".",".",".",".","_",".",".",".",".",".",".","_",".","_",".",".",".",".",".","."]],[[3,3,3,5,5,5,7,7,7,"_",7,"_",3,3,3,5,5,5,7,7,7,7,".",".",".","_",7,7,7,8,7,7,7,7,".",8,"_",".",".",".",".",".",".",".","."],[".",".",".",".",".",".",".",".",".","_",".","_",".",".",".",".",".",".",".",".",".",".",7,5,4,"_",".",".",".",".",".",".",".",".",8,".","_",".",8,10,8,10,"p",11,8],[".",".",".",".",".",".",".",".",".","_",".","_",".",".",".",".",".",".",".",".",".",".",".",".",".","_",".",".",".",".",".",".",".",".",".",".","_",9,".",".",".",".",".",".","."],[".",".",".",".",".",".",".",".",".","_",".","_",".",".",".",".",".",".",".",".",".",".",".",".",".","_",".",".",".",".",".",".",".",".",".",".","_",".",".",".",".",".",".",".","."],[".",".",".",".",".",".",".",".",".","_",".","_",".",".",".",".",".",".",".",".",".",".",".",".",".","_",".",".",".",".",".",".",".",".",".",".","_",".",".",".",".",".",".",".","."],[".",".",".",".",".",".",".",".",".","_",".","_",".",".",".",".",".",".",".",".",".",".",".",".",".","_",".",".",".",".",".",".",".",".",".",".","_",".",".",".",".",".",".",".","."]],[[17,15,14,15,".",".",".",".",15,"_",".",".",".","_",15,17,15,14,".",".",".",".",14,"_",15,17,15,14,15,".","_",15,15,17,15,14,15,".",".",".",".",".",15,"_",".","."],[".",".",".",".",15,15,13,12,".","_",13,".",13,"_",".",".",".",".",".",".",".",12,".","_",".",".",".",".",".",16,"_",".",".",".",".",".",".",15,15,15,13,12,".","_",13,12],[".",".",".",".",".",".",".",".",".","_",".",12,".","_",".",".",".",".",".",".",14,".",".","_",".",".",".",".",".",".","_",".",".",".",".",".",".",".",".",".",".",".",".","_",".","."],[".",".",".",".",".",".",".",".",".","_",".",".",".","_",".",".",".",".",".",13,".",".",".","_",".",".",".",".",".",".","_",".",".",".",".",".",".",".",".",".",".",".",".","_",".","."],[".",".",".",".",".",".",".",".",".","_",".",".",".","_",".",".",".",".",14,".",".",".",".","_",".",".",".",".",".",".","_",".",".",".",".",".",".",".",".",".",".",".",".","_",".","."],[".",".",".",".",".",".",".",".",".","_",".",".",".","_",".",".",".",".",".",".",".",".",".","_",".",".",".",".",".",".","_",".",".",".",".",".",".",".",".",".",".",".",".","_",".","."]],[[15,17,15,14,19,"h",".",15,17,17,15,14,15,12,"_",15,17,15,17,".",".",18,".",".","_",5,7,7,"_",5,7,7,".",7,"_",7,7,7,8,7,7,8,".",8,"_",".",".",".",".","."],[".",".",".",".",".",".",".",".",".",".",".",".",".",".","_",".",".",".",".",".",".",".",".",".","_",".",".",".","_",".",".",".",7,".","_",".",".",".",".",".",".",".",8,".","_",".",8,10,8,10],[".",".",".",".",".",".",".",".",".",".",".",".",".",".","_",".",".",".",".",".",".",".",".",".","_",".",".",".","_",".",".",".",".",".","_",".",".",".",".",".",".",".",".",".","_",9,".",".",".","."],[".",".",".",".",".",".",".",".",".",".",".",".",".",".","_",".",".",".",".",".",".",".",".",".","_",".",".",".","_",".",".",".",".",".","_",".",".",".",".",".",".",".",".",".","_",".",".",".",".","."],[".",".",".",".",".",".",".",".",".",".",".",".",".",".","_",".",".",".",".",".",".",".",".",".","_",".",".",".","_",".",".",".",".",".","_",".",".",".",".",".",".",".",".",".","_",".",".",".",".","."],[".",".",".",".",".",".",".",".",".",".",".",".",".",".","_",".",".",".",".",".",".",".",".",".","_",".",".",".","_",".",".",".",".",".","_",".",".",".",".",".",".",".",".",".","_",".",".",".",".","."]],[[10,8,8,10,8,"_",15,17,15,14,19,"h",5,3,2,"_",3,5,3,3,".",1,3,5,5,3,2,".",17,15,14,15,12,"_",3,5,2,3,".","_",3,5,3,2,".",".",".",".",2,"_"],[".",".",".",".",".","_",".",".",".",".",".",".",".",".",".","_",".",".",".",".",4,".",".",".",".",".",".",4,".",".",".",".",".","_",".",".",".",".",3,"_",".",".",".",".",".",".",".",0,".","_"],[".",".",".",".",".","_",".",".",".",".",".",".",".",".",".","_",".",".",".",".",".",".",".",".",".",".",".",".",".",".",".",".",".","_",".",".",".",".",".","_",".",".",".",".",".",".",2,".",".","_"],[".",".",".",".",".","_",".",".",".",".",".",".",".",".",".","_",".",".",".",".",".",".",".",".",".",".",".",".",".",".",".",".",".","_",".",".",".",".",".","_",".",".",".",".",".",1,".",".",".","_"],[".",".",".",".",".","_",".",".",".",".",".",".",".",".",".","_",".",".",".",".",".",".",".",".",".",".",".",".",".",".",".",".",".","_",".",".",".",".",".","_",".",".",".",".",2,".",".",".",".","_"],[".",".",".",".",".","_",".",".",".",".",".",".",".",".",".","_",".",".",".",".",".",".",".",".",".",".",".",".",".",".",".",".",".","_",".",".",".",".",".","_",".",".",".",".",".",".",".",".",".","_"]],[[3,5,3,2,3,0,"_",3,5,3,2,3,".","_",3,5,7,7,"_",3,5,7,7,".",".",".","_",7,7,8,7,".",8,".",".",".",8,"_",".",".",".",".",".",".",".","_",8,10,12,12],[".",".",".",".",".",".","_",".",".",".",".",".",4,"_",".",".",".",".","_",".",".",".",".",7,".",".","_",".",".",".",".",8,".",".",".",8,".","_",".",8,10,8,10,11,8,"_",".",".",".","."],[".",".",".",".",".",".","_",".",".",".",".",".",".","_",".",".",".",".","_",".",".",".",".",".",9,8,"_",".",".",".",".",".",".",".",9,".",".","_",9,".",".",".",".",".",".","_",".",".",".","."],[".",".",".",".",".",".","_",".",".",".",".",".",".","_",".",".",".",".","_",".",".",".",".",".",".",".","_",".",".",".",".",".",".",10,".",".",".","_",".",".",".",".",".",".",".","_",".",".",".","."],[".",".",".",".",".",".","_",".",".",".",".",".",".","_",".",".",".",".","_",".",".",".",".",".",".",".","_",".",".",".",".",".",".",".",".",".",".","_",".",".",".",".",".",".",".","_",".",".",".","."],[".",".",".",".",".",".","_",".",".",".",".",".",".","_",".",".",".",".","_",".",".",".",".",".",".",".","_",".",".",".",".",".",".",".",".",".",".","_",".",".",".",".",".",".",".","_",".",".",".","."]]],"numberofstrings":6,"notes":["E","B","G","D","A","E","B"],"capo":0,"stringnotes":["E4","B3","G3","D3","A2","E2"],"comments":["Stave 1:","Stave 2:","Stave 3:","Stave 4:","Stave 5:","Stave 6:","Stave 7:","Stave 8:"],"timing":[["W","W","W","W","W","W","W","W","W","W","W","W","W","W","W","W","W","W","W","W","W","W","W","W","W","W","W","W","W","W","W","W","W","W","W","W","W","W","W","W"],["W","W","W","W","W","W","W","W","W","W","W","W","W","W","W","W","W","W","W","W","W","W","W","W",null,"W","W","W",null,null,null,"W","W","W","W","W","W","W","W","W","W","W","W","W","W"],["W","W","W","W","W","W","W","W",null,"W","W","W","W","W","W","W","W","W","W","W",null,"W","W","W","W","W","W",null,"W","W","W","W","W","W",null,"W",null,"W","W","W","W","W","W"],["W","W","W","W","W","W","W","W","W",null,"W",null,"W","W","W","W","W","W","W","W","W","W","W","W","W",null,"W","W","W","W","W","W","W","W","W","W",null,"W","W","W","W","W","W","W","W"],["W","W","W","W","W","W","W","W","W",null,"W","W","W",null,"W","W","W","W","W","W","W","W","W",null,"W","W","W","W","W","W",null,"W","W","W","W","W","W","W","W","W","W","W","W",null,"W","W"],["W","W","W","W","W",null,"W","W","W","W","W","W","W",null,null,"W","W","W","W","W","W",null,"W","W","W",null,"W","W","W","W","W",null,"W","W","W","W","W","W","W","W","W",null,"W","W","W","W","W","W","W"],["W","W","W","W","W",null,"W","W","W","W","W",null,"W","W","W",null,"W","W","W","W","W","W","W","W","W","W","W","W","W","W","W","W","W",null,"W","W","W","W","W",null,"W","W","W","W","W","W","W","W","W",null,"W"],["W","W","W","W","W","W",null,"W","W","W","W","W","W",null,"W","W","W","W",null,"W","W","W","W","W","W","W","W","W","W","W","W","W","W","W","W","W","W",null,"W","W","W","W","W","W","W",null,"W","W","W","W","W"]],"timingvisible":false,"tabcounter":51,"stave":5,"totalstaves":8,"instrument":"6guitar","selectedtuning":"6_standard","version":"13"}

Member for

4 months 2 weeks
About Me
Neoclassical guitarist
Submitted by tofusiewjack on Mon, 2020-09-28 11:23