Sound will begin in 5 seconds

Indrid Cold Idea 2.13.16

Chords
01234567891011121314151617181920212223
E
B
G
D
A
E
B
0 1 2 3 4 5 6 7 8 9 10 11 12 13 14 15 16 17 18 19 20 21 22 23
Song Science #1: How Pros Use 6 Chords to Write Hit Songs
(/) Slide Up  (\) Slide Down  (h) Hammer On  (p) Pull Off  (b) Bend (r) Release (v) Vibrato

Stave 1:

E|-----------------------------------------|--------------6--6--6--6--6--6--------------------6--6--6--6--6--6-----------------
B|-----------------------------------------|--------------5--5--5--5--5--5--------------------5--5--5--5--5--5-----------------
G|-----------------------------------------|--------------7--7--7--7--7--7--------------------7--7--7--7--7--7-----------------
D|--------7--8-----2-----3-----5-----------|--------7--8--------------------5--3--------7--8-----------------------------------
A|-----5--------------------------3-----4--|-----5--------------------------3--1-----5--------------------------3--5-----1-----
D|--0-----------0-----0-----0--------0-----|--0-----------------------------------0-----------------------------3--5--0--1--0--

Stave 2:

E|-----------------------------------------|-----------------------------------------------------------------------------------
B|-----------------------------------------|--------------3--3--3--3--3--3--------------------3--3--3--3--3--3-----------------
G|-----------------------------------------|--------------3--3--3--3--3--3--------------------3--3--3--3--3--3-----------------
D|-----------------------------------------|--------------2--2--2--2--2--2--5--3--------------2--2--2--2--2--2-----------------
A|--5-----------------------------3-----4--|--5-----------------------------3--1--5-----------------------------3--5-----1-----
D|-----0--7--8--0--2--0--3--0--5-----0-----|-----0--7--8-----------------------------0--7--8--------------------3--5--0--1--0--

http://www.guitartabcreator.com
Guitar Tab Creator is intended to store guitar tab created through the tool. It currently does not support in-line text editing. Any text you place in here will be lost. If you need to comment on your tab, please use the "Tab Notes" section located below.