Sonnova Faith - Dan Patlansky

01234567891011121314151617181920212223
E
B
G
D
A
E
B
0 1 2 3 4 5 6 7 8 9 10 11 12 13 14 15 16 17 18 19 20 21 22 23
(/) Slide Up  (\) Slide Down  (h) Hammer On  (p) Pull Off  (b) Bend (r) Release (v) Vibrato

Intro/Chorus

Eb|-------------------------------------------|--
Bb|-------------------------------------------|--
Gb|-------------------------------------------|--
Db|--------------3----------------------------|--
Ab|--3--5--3--5------------3---------2--------|--
Eb|-----------------1h2h3-----1h2h3-----1--3--|--

Verse

Eb|----------------------------------|--
Bb|----------------------------------|--
Gb|----------------------------------|--
Db|--7-------------------------------|--
Ab|--5------------3---------2--------|--
Eb|--------1h2h3-----1h2h3-----1--3--|--

Bridge

Eb|--0-----------0--------0--|--
Bb|--3-----------3--------3--|--
Gb|--2-----------2--------1--|--
Db|--0--------0--------2-----|--
Ab|--0-----------------------|--
Eb|--------1--------0--------|--

Solo

Eb|-------------10-------------------|--------------------------|--10-----13-----15-----|-------|--
Bb|--13b15--13------10--13-----------|--13----------------------|--13b15--16b18--18b20--|-------|--
Gb|-------------------------12--10v--|--12b14--10--12------10v--|-----------------------|--10v--|--
Db|----------------------------------|-----------------12-------|-----------------------|-------|--
Ab|----------------------------------|--------------------------|-----------------------|-------|--
Eb|----------------------------------|--------------------------|-----------------------|-------|--

							http://www.guitartabcreator.com
Chords

Instruments
{"strings":[[[".",".",".",".",".",".",".",".",".",".",".",".",".",".",".",".",".",".",".","|"],[".",".",".",".",".",".",".",".",".",".",".",".",".",".",".",".",".",".",".","|"],[".",".",".",".",".",".",".",".",".",".",".",".",".",".",".",".",".",".",".","|"],[".",".",".",".",3,".",".",".",".",".",".",".",".",".",".",".",".",".",".","|"],[3,5,3,5,".",".",".",".",".",".",3,".",".",".",".",".",2,".",".","|"],[".",".",".",".",".",1,"h",2,"h",3,".",1,"h",2,"h",3,".",1,3,"|"]],[[".","_",".",".",".",".",".",".",".",".",".",".",".",".",".",".","|"],[".","_",".",".",".",".",".",".",".",".",".",".",".",".",".",".","|"],[".","_",".",".",".",".",".",".",".",".",".",".",".",".",".",".","|"],[7,"_",".",".",".",".",".",".",".",".",".",".",".",".",".",".","|"],[5,"_",".",".",".",".",".",3,".",".",".",".",".",2,".",".","|"],[".","_",1,"h",2,"h",3,".",1,"h",2,"h",3,".",1,3,"|"]],[[0,"_",".",".",0,".",".",0,"|"],[3,"_",".",".",3,".",".",3,"|"],[2,"_",".",".",2,".",".",1,"|"],[0,"_",".",0,".",".",2,".","|"],[0,"_",".",".",".",".",".",".","|"],[".","_",1,".",".",0,".",".","|"]],[[".",".",".",".",10,".",".",".",".",".","|",".",".",".",".",".",".",".",".","|",10,".",".",13,".",".",15,".",".","|",".",".","|"],[13,"b",15,13,".",10,13,".",".",".","|",13,".",".",".",".",".",".",".","|",13,"b",15,16,"b",18,18,"b",20,"|",".",".","|"],[".",".",".",".",".",".",".",12,10,"v","|",12,"b",14,10,12,".",10,"v","|",".",".",".",".",".",".",".",".",".","|",10,"v","|"],[".",".",".",".",".",".",".",".",".",".","|",".",".",".",".",".",12,".",".","|",".",".",".",".",".",".",".",".",".","|",".",".","|"],[".",".",".",".",".",".",".",".",".",".","|",".",".",".",".",".",".",".",".","|",".",".",".",".",".",".",".",".",".","|",".",".","|"],[".",".",".",".",".",".",".",".",".",".","|",".",".",".",".",".",".",".",".","|",".",".",".",".",".",".",".",".",".","|",".",".","|"]]],"numberofstrings":6,"notes":["DsEb","AsBb","FsGb","CsDb","GsAb","DsEb"],"capo":0,"stringnotes":["Eb3","Bb2","Gb2","Db2","Ab1","Eb1"],"comments":["Intro/Chorus","Verse","Bridge","Solo"],"timing":[["W","W","W","W","W","W",null,"W",null,"W","W","W",null,"W",null,"W","W","W","W"],["W",null,"W",null,"W",null,"W","W","W",null,"W",null,"W","W","W","W"],["W",null,"W","W","W","W","W","W"],["W",null,"W","W","W","W","W","W","W",null,null,"W",null,"W","W","W","W","W",null,null,"W",null,"W","W",null,"W","W",null,"W",null,"W"]],"timingvisible":false,"tabcounter":33,"stave":3,"totalstaves":4,"instrument":"6guitar","selectedtuning":"Half Step Down","version":"13"}

Member for

2 months
Submitted by toddrj on Thu, 2021-01-07 11:43