Sound will begin in 5 seconds

CHAMELEON GTR

01234567891011121314151617181920212223
E
B
G
D
A
E
B
0 1 2 3 4 5 6 7 8 9 10 11 12 13 14 15 16 17 18 19 20 21 22 23
Song Science #1: How Pros Use 6 Chords to Write Hit Songs
(/) Slide Up  (\) Slide Down  (h) Hammer On  (p) Pull Off  (b) Bend (r) Release (v) Vibrato

Stave 1:

E|-------|--------------------------------------|----------------------------|--
B|-------|--------------------------------------|----------------------------|--
G|--6h8--|--6-----------------------------------|-----------------------6h8--|--
D|-------|-----8-----6--6-----6--6--6--8-----6--|--6-----6--6--6--6--8-------|--
A|-------|--------------------------------------|----------------------------|--
E|-------|--------------------------------------|----------------------------|--

Stave 2:

E|--------------------------------------|--------------------|-----------------------|--
B|-----------------------------2--------|--------------------|--------------2-----4--|--
G|--3--3-----1--1-----3--3-----------3--|--------3--1-----1--|-----3-----------------|--
D|--------------------------------------|--------------3-----|-----------------------|--
A|--------------------------------------|--------------------|-----------------------|--
E|--------------------------------------|--------------------|-----------------------|--

Stave 3:

E|--------------------------------|--------------------------------------|--------------------------|--
B|-----6-----4-----4--2-----2--4--|--2-----------------------------------|-----------------2-----4--|--
G|--------------------------------|-----3--1-----------------3--1-----1--|-----3--------------------|--
D|--------------------------------|--------------------------------3-----|--------------------------|--
A|--------------------------------|-----------4-----1--------------------|--------------------------|--
E|--------------------------------|--------------------------------------|--------------------------|--

Stave 4:

E|-----------------------------|-----------------------------|--------------|--
B|-----6--4-----4--2-----2--4--|--2--------------------------|--------------|--
G|-----------------------------|-----3--1--------------------|--------------|--
D|-----------------------------|-----------------------------|--------------|--
A|-----------------------------|-----------4-----1-----------|--------------|--
E|-----------------------------|-----------------------------|--------------|--

Stave 5:

E|-----------------3--4--6--|------------------------------|----------------------------------
B|-----------4--6-----------|--------------------8--9--11--|----------------------13--14--16--
G|--3--5--6-----------------|-------------8--10------------|----------12--13--15--------------
D|--------------------------|--8--10--11-------------------|--13--15--------------------------
A|--------------------------|------------------------------|----------------------------------
E|--------------------------|------------------------------|----------------------------------

Stave 6:

E|--
B|--
G|--
D|--
A|--
E|--

http://www.guitartabcreator.com
Guitar Tab Creator is intended to store guitar tab created through the tool. It currently does not support in-line text editing. Any text you place in here will be lost. If you need to comment on your tab, please use the "Tab Notes" section located below.