Sound will begin in 5 seconds

Bb Major scale BASS

01234567891011121314151617181920212223
E
B
G
D
A
E
B
0 1 2 3 4 5 6 7 8 9 10 11 12 13 14 15 16 17 18 19 20 21 22 23
Song Science #1: How Pros Use 6 Chords to Write Hit Songs
(/) Slide Up  (\) Slide Down  (h) Hammer On  (p) Pull Off  (b) Bend (r) Release (v) Vibrato

Stave 1:

G|-----------------------------|--------------------------|----------------------12--14--15--
D|-----------------------------|-----------------5--7--8--|----------12--13--15--------------
A|--1--3--5--6--8--10--12--13--|--------5--6--8-----------|--13--15--------------------------
E|-----------------------------|--6--8--------------------|----------------------------------

Stave 2:

G|-----------|-----------|-----------|-----------|--------5--|--------7--|-----5--8--|-----
D|-----------|--------5--|--------7--|-----5--8--|-----7-----|--5--8-----|--7--------|--8--
A|-----5--8--|-----6-----|--5--8-----|--6--------|--8--------|-----------|-----------|-----
E|--6--------|--8--------|-----------|-----------|-----------|-----------|-----------|-----

http://www.guitartabcreator.com
Guitar Tab Creator is intended to store guitar tab created through the tool. It currently does not support in-line text editing. Any text you place in here will be lost. If you need to comment on your tab, please use the "Tab Notes" section located below.