Open G Blue Licks

Chords

01234567891011121314151617181920212223
E
B
G
D
A
E
B
0 1 2 3 4 5 6 7 8 9 10 11 12 13 14 15 16 17 18 19 20 21 22 23
(/) Slide Up  (\) Slide Down  (h) Hammer On  (p) Pull Off  (b) Bend (r) Release (v) Vibrato

Stave 1:

D|---------12---------12---------------------------------------------------------------------
B|--11/12------11/12-------------------------------------------------------------------------
G|------------------------11/12----------------12\10------12\10------12\10/12-----/12--------
D|-------------------------------12--------12---------12---------12--------------------------
G|-------------------------------------------------------------------------------------------
D|-------------------------------------------------------------------------------------------

Stave 2:

D|------------------5-------8-----------------5--3------------------------5--
B|--12--10-------------7/8--------------------------3\2----------------------
G|--12--10-----4/5-------------8--5--0--3--0-------------0--2/3--0-----------
D|--12--10----------------------------------------------------------3--3-----
G|--x------------------------------------------------------------------------
D|---------------------------------------------------------------------------

Stave 3:

D|-------7-------5------------------0--5--0--3--2--1--0-----
B|--6/7-----4/5-----4/5-------------------------------------
G|-----------------------5--0/3--0--------------------------
D|----------------------------------------------------------
G|----------------------------------------------------------
D|----------------------------------------------------------

							http://www.guitartabcreator.com
genre
Instruments
{"strings":[[[".",".",".",12,".",".",".",12,".",".",".",".","_","_",".",".",".",".",".",".",".",".",".",".",".",".",".",".","_",".",".","_","_"],[11,"/",12,".",11,"/",12,".",".",".",".",".","_","_",".",".",".",".",".",".",".",".",".",".",".",".",".",".","_",".",".","_","_"],[".",".",".",".",".",".",".",".",11,"/",12,".","_","_",".",12,"\\",10,".",12,"\\",10,".",12,"\\",10,"/",12,"_","/",12,"_","_"],[".",".",".",".",".",".",".",".",".",".",".",12,"_","_",12,".",".",".",12,".",".",".",12,".",".",".",".",".","_",".",".","_","_"],[".",".",".",".",".",".",".",".",".",".",".",".","_","_",".",".",".",".",".",".",".",".",".",".",".",".",".",".","_",".",".","_","_"],[".",".",".",".",".",".",".",".",".",".",".",".","_","_",".",".",".",".",".",".",".",".",".",".",".",".",".",".","_",".",".","_","_"]],[[".",".","_",".",".",".",5,".",".",".",8,".",".",".",".",".",5,3,".",".",".",".",".",".",".",".",".",".",5],[12,10,"_",".",".",".",".",7,"/",8,".",".",".",".",".",".",".",".",3,"\\",2,".",".",".",".",".",".",".","."],[12,10,"_",4,"/",5,".",".",".",".",".",8,5,0,3,0,".",".",".",".",".",0,2,"/",3,0,".",".","."],[12,10,"_",".",".",".",".",".",".",".",".",".",".",".",".",".",".",".",".",".",".",".",".",".",".",".",3,3,"."],["x12",".","_",".",".",".",".",".",".",".",".",".",".",".",".",".",".",".",".",".",".",".",".",".",".",".",".",".","."],[".",".","_",".",".",".",".",".",".",".",".",".",".",".",".",".",".",".",".",".",".",".",".",".",".",".",".",".","."]],[[".",".",".",7,".",".",".",5,".",".",".",".",".",".",".",".",0,5,0,3,2,1,0,"."],[6,"/",7,".",4,"/",5,".",4,"/",5,".",".",".",".",".",".",".",".",".",".",".",".","."],[".",".",".",".",".",".",".",".",".",".",".",5,0,"/",3,0,".",".",".",".",".",".",".","."],[".",".",".",".",".",".",".",".",".",".",".",".",".",".",".",".",".",".",".",".",".",".",".","."],[".",".",".",".",".",".",".",".",".",".",".",".",".",".",".",".",".",".",".",".",".",".",".","."],[".",".",".",".",".",".",".",".",".",".",".",".",".",".",".",".",".",".",".",".",".",".",".","."]]],"numberofstrings":6,"notes":["D","B","G","D","G","D"],"capo":0,"stringnotes":["D3","B2","G2","D2","G1","D1"],"comments":["Stave 1:","Stave 2:","Stave 3:"],"timing":[["W",null,"W","W","W","W","W","W","W",null,"W","W",null,null,"W","W",null,"W","W","W",null,"W","W","W",null,"W",null,"W",null,null,"W",null,null,"W","W"],["W","W","W","W","W","W","W","W",null,"W","W","W","W","W","W","W","W","W","W",null,"W","W","W",null,"W","W","W","W","W"],["W",null,"W","W","W",null,"W","W","W",null,"W","W","W",null,"W","W","W","W","W","W","W","W","W"]],"timingvisible":false,"tabcounter":24,"stave":2,"totalstaves":3,"instrument":"6guitar","selectedtuning":"Open G","version":"13"}

Member for

3 months 1 week
Submitted by tobinm117 on Thu, 2020-08-20 16:33