Sound will begin in 5 seconds

Nine Inch Nails - Right Where It Belongs V.2

01234567891011121314151617181920212223
E
B
G
D
A
E
B
0 1 2 3 4 5 6 7 8 9 10 11 12 13 14 15 16 17 18 19 20 21 22 23
Song Science #1: How Pros Use 6 Chords to Write Hit Songs
(/) Slide Up  (\) Slide Down  (h) Hammer On  (p) Pull Off  (b) Bend (r) Release (v) Vibrato

Stave 1:

E|-----------------------------------------------------------
B|-----------------------------------------------------------
G|-----7-----5--------7-----5--------7-----5--------7-----5--
D|-----------------------------------------------------------
A|--5-----5--------5-----5--------5-----5--------5-----5-----
C|-----------------------------------------------------------

Stave 2:

E|-----------------------------------------------------------
B|-----------------------------------5-----6--------3-----1--
G|-----7-----5--------7-----5--------------------------------
D|-----------------------------------------------------------
A|--5-----5--------5-----5--------3-----3--------1-----1-----
C|-----------------------------------------------------------

Stave 3:

E|----------------------------------------------------------------------------------
B|--------------------10---------------------8-----------------6-----------------5--
G|-----7-----5----------------------------------------------------------------------
D|----------------------------12------10-----------7-----5-----------3-----2--------
A|----------------------------------------------------------------------------------
C|--7-----7---------------10------10------------5-----5-----------0-----0-----------

Stave 4:

E|------------------------------------------------------------------------------3--
B|---------------------------------------------------------------------3-----1-----
G|-----7-----5-----7--8---------------------------7-----5--------------------------
D|---------------------------12------10-----7-----------------3--2-----------------
A|---------------------------------------------------------------------------------
C|--7-----7--------------10------10------------5-----5--------------0-----0--------

http://www.guitartabcreator.com
Guitar Tab Creator is intended to store guitar tab created through the tool. It currently does not support in-line text editing. Any text you place in here will be lost. If you need to comment on your tab, please use the "Tab Notes" section located below.