antiDiHoc

01234567891011121314151617181920212223
E
B
G
D
A
E
B
0 1 2 3 4 5 6 7 8 9 10 11 12 13 14 15 16 17 18 19 20 21 22 23
(/) Slide Up  (\) Slide Down  (h) Hammer On  (p) Pull Off  (b) Bend (r) Release (v) Vibrato

Intro

E|--------------------------|--------------------------|--------------------------|--------------------------|--
B|-----3-----3-----3-----3--|-----9-----9-----9-----9--|--------------------------|--------------------------|--
G|--3-----3-----3-----3-----|--9-----9-----9-----9-----|-----5-----5-----5-----5--|-----2-----2-----2-----2--|--
D|--------------------------|--------------------------|--7-----7-----7-----7-----|--3-----3-----3-----3-----|--
A|--------------------------|--------------------------|--------------------------|--------------------------|--
E|--------------------------|--------------------------|--------------------------|--------------------------|--

Verse (PMx8 per chord) (C5 E5 A5 F5) 

E|-----|-----|-----|-----|--
B|-----|-----|-----|-----|--
G|--5--|--9--|-----|-----|--
D|--5--|--9--|--7--|--3--|--
A|--3--|--7--|--7--|--3--|--
E|-----|-----|--5--|--1--|--

Chorus (C E7  Am G)

E|--3--|--7--|--5--|--1--|--
B|--5--|--9--|--5--|--1--|--
G|--5--|--7--|--5--|--2--|--
D|--5--|--9--|--7--|--3--|--
A|--3--|--7--|--7--|--3--|--
E|--3--|--7--|--5--|--1--|--

Bridge (A Am7 Bb Dm E Am7 F G7)

E|--5--|--5--|--1--|--5--|--7--|--5--|--1--|--3--|--
B|--5--|--5--|--3--|--6--|--9--|--5--|--1--|--3--|--
G|--6--|--5--|--3--|--7--|--9--|--5--|--2--|--4--|--
D|--7--|--5--|--3--|--7--|--9--|--5--|--3--|--3--|--
A|--7--|--7--|--1--|--5--|--7--|--7--|--3--|--5--|--
E|--5--|--5--|--1--|-----|--7--|--5--|--1--|--3--|--

Solo

E|--
B|--
G|--
D|--
A|--
E|--

							http://www.guitartabcreator.com
Chords

Instruments
{"strings":[[[".",".",".",".",".",".",".",".","|",".",".",".",".",".",".",".",".","|",".",".",".",".",".",".",".",".","|",".",".",".",".",".",".",".",".","|"],[".",3,".",3,".",3,".",3,"|",".",9,".",9,".",9,".",9,"|",".",".",".",".",".",".",".",".","|",".",".",".",".",".",".",".",".","|"],[3,".",3,".",3,".",3,".","|",9,".",9,".",9,".",9,".","|",".",5,".",5,".",5,".",5,"|",".",2,".",2,".",2,".",2,"|"],[".",".",".",".",".",".",".",".","|",".",".",".",".",".",".",".",".","|",7,".",7,".",7,".",7,".","|",3,".",3,".",3,".",3,".","|"],[".",".",".",".",".",".",".",".","|",".",".",".",".",".",".",".",".","|",".",".",".",".",".",".",".",".","|",".",".",".",".",".",".",".",".","|"],[".",".",".",".",".",".",".",".","|",".",".",".",".",".",".",".",".","|",".",".",".",".",".",".",".",".","|",".",".",".",".",".",".",".",".","|"]],[[".","|",".","|",".","|",".","|"],[".","|",".","|",".","|",".","|"],[5,"|",9,"|",".","|",".","|"],[5,"|",9,"|",7,"|",3,"|"],[3,"|",7,"|",7,"|",3,"|"],[".","|",".","|",5,"|",1,"|"]],[[3,"|",7,"|",5,"|",1,"|"],[5,"|",9,"|",5,"|",1,"|"],[5,"|",7,"|",5,"|",2,"|"],[5,"|",9,"|",7,"|",3,"|"],[3,"|",7,"|",7,"|",3,"|"],[3,"|",7,"|",5,"|",1,"|"]],[[5,"|",5,"|",1,"|",5,"|",7,"|",5,"|",1,"|",3,"|"],[5,"|",5,"|",3,"|",6,"|",9,"|",5,"|",1,"|",3,"|"],[6,"|",5,"|",3,"|",7,"|",9,"|",5,"|",2,"|",4,"|"],[7,"|",5,"|",3,"|",7,"|",9,"|",5,"|",3,"|",3,"|"],[7,"|",7,"|",1,"|",5,"|",7,"|",7,"|",3,"|",5,"|"],[5,"|",5,"|",1,"|",".","|",7,"|",5,"|",1,"|",3,"|"]],[[],[],[],[],[],[]]],"numberofstrings":6,"notes":["E","B","G","D","A","E","B"],"capo":0,"stringnotes":["E4","B3","G3","D3","A2","E2"],"comments":["Intro","Verse (PMx8 per chord) (C5 E5 A5 F5) ","Chorus (C E7 Am G)","Bridge (A Am7 Bb Dm E Am7 F G7)","Solo"],"timing":[[null,null,null,null,null,null,null,null,null,"W","W","W","W","W","W","W","W",null,"W","W","W","W","W","W","W","W",null,"W","W","W","W","W","W","W","W",null,"W","W","W"],["W","W","W",null,"W",null,"W"],["W",null,"W",null,"W",null,"W"],["W","W","W","W","W","W","W",null,"W",null,"W",null,"W",null,"W"],[]],"timingvisible":false,"tabcounter":0,"stave":4,"totalstaves":5,"instrument":"6guitar","selectedtuning":"6_standard","version":"13"}

Member for

1 month 3 weeks
Submitted by toanthinh on Thu, 2020-11-26 09:01