Sound will begin in 5 seconds

Hotel California Live 1994

Chords
01234567891011121314151617181920212223
E
B
G
D
A
E
B
0 1 2 3 4 5 6 7 8 9 10 11 12 13 14 15 16 17 18 19 20 21 22 23
Song Science #1: How Pros Use 6 Chords to Write Hit Songs
(/) Slide Up  (\) Slide Down  (h) Hammer On  (p) Pull Off  (b) Bend (r) Release (v) Vibrato

Stave 1:

E|--9------------------------------------------------
B|--7------------------------------------------------
G|--7-------------------6--7--9--11--11h12p11--9/11--
D|--7--9--9h11p9--8--9-------------------------------
A|--9------------------------------------------------
E|--x------------------------------------------------

Stave 2:

E|--5-------------------------------------
B|--5-------------------------------------
G|--6--------7--6-------------------------
D|--7--7--9--------7--7/9--7--------------
A|--x-------------------------9\7---------
E|--x------------------------------10/12--

Stave 3:

E|--3-----------0-----------0-----------0-----------0--------7p0--------10p0--------7p0--------10p0--
B|--0--------0-----------0-----------0-----------0--------8----------8-----------8----------8--------
G|--0-----0-----------2-----------4-----------7--------9----------9-----------9----------9-----------
D|--2--2-----------4-----------5-----------9---------------------------------------------------------
A|--2------------------------------------------------------------------------------------------------
E|--x------------------------------------------------------------------------------------------------

Stave 4:

E|--------7p0--------10p0--------7p0--------10p0--------7p0--------10p0--------7p0--------10p0--
B|-----8----------8-----------8----------8-----------8----------8-----------8----------8--------
G|--9----------9-----------9----------9-----------9----------9-----------9----------9-----------
D|----------------------------------------------------------------------------------------------
A|----------------------------------------------------------------------------------------------
E|----------------------------------------------------------------------------------------------

Stave 5:

E|--------7p0--------10p0--------7p0--------10p0--------7p0--------10p0--------7p0--------10p0--
B|-----8----------8-----------8----------8-----------8----------8-----------8----------8--------
G|--9----------9-----------9----------9-----------9----------9-----------9----------9-----------
D|----------------------------------------------------------------------------------------------
A|----------------------------------------------------------------------------------------------
E|----------------------------------------------------------------------------------------------

Stave 6:

E|--------7p0--------10p0--------7p0--------10p0--------7p0--------10p0--------7p0--------10p0--
B|-----8----------8-----------8----------8-----------8----------8-----------8----------8--------
G|--9----------9-----------9----------9-----------9----------9-----------9----------9-----------
D|----------------------------------------------------------------------------------------------
A|----------------------------------------------------------------------------------------------
E|----------------------------------------------------------------------------------------------

Stave 7:

E|--------7--6--7--9--10--9--10--12/14--14--
B|-----8------------------------------------
G|--9---------------------------------------
D|------------------------------------------
A|------------------------------------------
E|------------------------------------------

Stave 8:

E|--9---------------------------------------------------
B|--7-----7h8p7-----7--7-----7--------------------------
G|--7------------9--------9-----7--9--7-----7-----------
D|--7--9---------------------------------9-----9--7--9--
A|--9---------------------------------------------------
E|--x---------------------------------------------------

http://www.guitartabcreator.com
Guitar Tab Creator is intended to store guitar tab created through the tool. It currently does not support in-line text editing. Any text you place in here will be lost. If you need to comment on your tab, please use the "Tab Notes" section located below.