Sound will begin in 5 seconds

Determination - Undertale

01234567891011121314151617181920212223
E
B
G
D
A
E
B
0 1 2 3 4 5 6 7 8 9 10 11 12 13 14 15 16 17 18 19 20 21 22 23
Song Science #1: How Pros Use 6 Chords to Write Hit Songs
(/) Slide Up  (\) Slide Down  (h) Hammer On  (p) Pull Off  (b) Bend (r) Release (v) Vibrato

Stave 1:

E|-----------------------------------4--9--6--
B|--7--6--4-----4-----------4--6--7-----------
G|-----------6-----3--5-----------------------
D|-----------------------6--------------------
A|--------------------------------------------
E|--------------------------------------------

Stave 2:

E|--------------------------------------------
B|--7--6--4-----4-----------------------------
G|-----------6-----3--5-----------------------
D|-----------------------6--------------------
A|--------------------------6--8--9--8--4--6--
E|--------------------------------------------

Stave 3:

E|-----------------------------------------------------
B|--9--7--------------------------9--7-----------------
G|--------9--8--6--9--8--------8--------9--8--6--9--8--
D|-----------------------8--8--------------------------
A|-----------------------------------------------------
E|-----------------------------------------------------

Stave 4:

E|--------9--8--6-----6--8--6--------------------11--10--
B|-----9-----------9-------------------------12----------
G|--8--------------------------8--8--10--11--------------
D|-------------------------------------------------------
A|-------------------------------------------------------
E|-------------------------------------------------------

Stave 5:

E|--------9--8--6-----6--8--6----------------------------
B|-----9-----------9-------------------------------------
G|--8--------------------------8--8--10--11--10----------
D|-----------------------------------------------11--13--
A|-------------------------------------------------------
E|-------------------------------------------------------

Stave 6:

E|--
B|--
G|--
D|--
A|--
E|--

http://www.guitartabcreator.com
Guitar Tab Creator is intended to store guitar tab created through the tool. It currently does not support in-line text editing. Any text you place in here will be lost. If you need to comment on your tab, please use the "Tab Notes" section located below.