E Comforter

Chords

01234567891011121314151617181920212223
E
B
G
D
A
E
B
0 1 2 3 4 5 6 7 8 9 10 11 12 13 14 15 16 17 18 19 20 21 22 23
(/) Slide Up  (\) Slide Down  (h) Hammer On  (p) Pull Off  (b) Bend (r) Release (v) Vibrato

E Comforter

E|----------------------|--------------------|-------------------|--
B|--9---------9---------|---------9--12------|--10--9------------|--
G|--9--9--11-----11--9--|--9--11---------11--|---------9--11--9--|--
D|--9-------------------|--------------------|------------9---7--|--
A|----------------------|--------------------|-------------------|--
E|----------------------|--------------------|-------------------|--

Stave 2:

E|--------------|--------------|--------
B|--------9-----|--------9-----|--------
G|-----------9--|-----------9--|--------
D|-----9--------|-----9--------|--------
A|--------------|--0-----------|--------
E|--0-----------|--------------|--0--0--

							http://www.guitartabcreator.com
Tab Notes
E Comforter
 
E|--------------------------|----------------------|---------------------|--
B|--9---------9------------|------------9--12---|--10--9------------|--
G|--9--9--11-----11--9--|--9--11----------11-|---------9--11--9--|--
D|--9----------------------|----------------------|-------------9---7--|--
A|--------------------------|----------------------|--------------------|--
E|--------------------------|----------------------|---------------------|--
 
E|---------------|--------------|--------
B|--------9-----|--------9-----|--------
G|-----------9--|-----------9--|--------
D|-----9--------|-----9--------|--------
A|---------------|--0-----------|--------
E|--0------------|--------------|--0--0--
 
Instruments
{"title":"E Comforter","strings":[[[".",".",".",".",".",".","|",".",".",".",".",".","|",".",".",".",".",".","|"],[9,".",".",9,".",".","|",".",".",9,12,".","|",10,9,".",".",".","|"],[9,9,11,".",11,9,"|",9,11,".",".",11,"|",".",".",9,11,9,"|"],[9,".",".",".",".",".","|",".",".",".",".",".","|",".",".",".",9,7,"|"],[".",".",".",".",".",".","|",".",".",".",".",".","|",".",".",".",".",".","|"],[".",".",".",".",".",".","|",".",".",".",".",".","|",".",".",".",".",".","|"]],[[".",".",".",".","|",".",".",".",".","|",".","."],[".",".",9,".","|",".",".",9,".","|",".","."],[".",".",".",9,"|",".",".",".",9,"|",".","."],[".",9,".",".","|",".",9,".",".","|",".","."],[".",".",".",".","|",0,".",".",".","|",".","."],[0,".",".",".","|",".",".",".",".","|",0,0]]],"numberofstrings":6,"notes":["E","B","G","D","A","E","B"],"capo":0,"stringnotes":["E4","B3","G3","D3","A2","E2"],"comments":["E Comforter","Stave 2:"],"timing":[["W","W","W","W","W","W",null,"W","W","W","W","W",null,"W","W","W","W","W"],["W","W","W","W",null,"W","W","W","W",null,"W","W"]],"timingvisible":false,"tabcounter":12,"stave":1,"totalstaves":2,"instrument":"6guitar","selectedtuning":"6_standard","version":"13"}

Member for

2 years 2 months
Submitted by tmctarplj on Sat, 2019-11-16 09:46