D Oh The Love of My Redeemer

Chords

01234567891011121314151617181920212223
E
B
G
D
A
E
B
0 1 2 3 4 5 6 7 8 9 10 11 12 13 14 15 16 17 18 19 20 21 22 23
(/) Slide Up  (\) Slide Down  (h) Hammer On  (p) Pull Off  (b) Bend (r) Release (v) Vibrato

D Oh The Love of My Redeemer

E|------------------|--------------|------------------|--------------------------|--
B|--12----------12--|--12----------|--12----------15--|--15--15--15--15--15--15--|--
G|------11----------|--------------|------11--14------|--------------------------|--
D|----------11------|------12--11--|------------------|--------------------------|--
A|------------------|--------------|------------------|--------------------------|--
E|------------------|--------------|------------------|--------------------------|--

Stave 2:

E|-----------------------|--------------------|--------------
B|--10/12\10\7-----------|--------------------|--2--3--0--7--
G|--------------7/9\7\6--|--7--7--7--7--6--7--|--2--4--0--7--
D|-----------------------|--------------------|--2--4--0--7--
A|-----------------------|--------------------|--------------
E|-----------------------|--------------------|--------------

							http://www.guitartabcreator.com
Tab Notes
D Oh The Love of My Redeemer
 
E|--------------------|----------------|--------------------|--------------------------------|--
B|--12----------12--|--12-----------|--12----------15--|--15--15--15--15--15--15--|--
G|------11-----------|----------------|------11--14------|--------------------------------|--
D|----------11-------|------12--11--|--------------------|--------------------------------|--
A|--------------------|----------------|--------------------|--------------------------------|--
E|--------------------|----------------|--------------------|--------------------------------|--
 
E|----------------------------|-----------------------|--------------
B|--10/12\10\7-------------|-----------------------|--2--3--0--7--
G|-----------------7/9\7\6--|--7--7--7--7--6--7--|--2--4--0--7--
D|----------------------------|-----------------------|--2--4--0--7--
A|----------------------------|-----------------------|--------------
E|----------------------------|-----------------------|--------------
 
 
Instruments
{"title":"D Oh The Love of My Redeemer","strings":[[[".",".",".",".","|",".",".",".","|",".",".",".",".","|",".",".",".",".",".",".","|"],[12,".",".",12,"|",12,".",".","|",12,".",".",15,"|",15,15,15,15,15,15,"|"],[".",11,".",".","|",".",".",".","|",".",11,14,".","|",".",".",".",".",".",".","|"],[".",".",11,".","|",".",12,11,"|",".",".",".",".","|",".",".",".",".",".",".","|"],[".",".",".",".","|",".",".",".","|",".",".",".",".","|",".",".",".",".",".",".","|"],[".",".",".",".","|",".",".",".","|",".",".",".",".","|",".",".",".",".",".",".","|"]],[[".",".",".",".",".",".",".",".",".",".",".",".",".",".","|",".",".",".",".",".",".","|",".",".",".","."],[10,"/",12,"\\",10,"\\",7,".",".",".",".",".",".",".","|",".",".",".",".",".",".","|",2,3,0,7],[".",".",".",".",".",".",".",7,"/",9,"\\",7,"\\",6,"|",7,7,7,7,6,7,"|",2,4,0,7],[".",".",".",".",".",".",".",".",".",".",".",".",".",".","|",".",".",".",".",".",".","|",2,4,0,7],[".",".",".",".",".",".",".",".",".",".",".",".",".",".","|",".",".",".",".",".",".","|",".",".",".","."],[".",".",".",".",".",".",".",".",".",".",".",".",".",".","|",".",".",".",".",".",".","|",".",".",".","."]]],"numberofstrings":6,"notes":["E","B","G","D","A","E","B"],"capo":0,"stringnotes":["E4","B3","G3","D3","A2","E2"],"comments":["D Oh The Love of My Redeemer","Stave 2:"],"timing":[["W","W","W","W",null,"W","W","W",null,"W","W","W","W",null,"W","W","W","W","W","W"],["W",null,"W",null,"W",null,"W","W",null,"W",null,"W",null,"W",null,"W","W","W","W","W","W",null,"W","W","W","W"]],"timingvisible":false,"tabcounter":26,"stave":1,"totalstaves":2,"instrument":"6guitar","selectedtuning":"6_standard","version":"13"}

Member for

2 years 2 months
Submitted by tmctarplj on Sat, 2019-11-16 09:56