D Not A Drop

Chords

01234567891011121314151617181920212223
E
B
G
D
A
E
B
0 1 2 3 4 5 6 7 8 9 10 11 12 13 14 15 16 17 18 19 20 21 22 23
(/) Slide Up  (\) Slide Down  (h) Hammer On  (p) Pull Off  (b) Bend (r) Release (v) Vibrato

D Not A Drop

E|--------------|------------------|----------------|------------------|--
B|-----7-----7--|------12------12--|-----10-----10--|------14------12--|--
G|--7-----7-----|--11------11------|--9------9------|--12------12------|--
D|--------------|------------------|----------------|------------------|--
A|--------------|------------------|----------------|------------------|--
E|--------------|------------------|----------------|------------------|--

Stave 2:

E|----------------|------------------|------------------|---------------|--
B|-----10-----10--|------12------15--|------12------15--|-----10-----7--|--
G|--7------7------|--12------12------|--11------11------|--7------7-----|--
D|----------------|------------------|------------------|---------------|--
A|----------------|------------------|------------------|---------------|--
E|----------------|------------------|------------------|---------------|--

Stave 3:

E|-----------------|--------------|--------------
B|--------3--2--3--|-----2-----2--|-----0-----0--
G|--2--4-----------|--2-----2-----|--0-----0-----
D|-----------------|--------------|--------------
A|-----------------|--------------|--------------
E|-----------------|--------------|--------------

							http://www.guitartabcreator.com
Tab Notes
(/) Slide Up  (\) Slide Down  (h) Hammer On  (p) Pull Off  (b) Bend (r) Release (v) Vibrato
 
D Not A Drop
E|---------------|--------------------|------------------|--------------------|--
B|-----7-----7--|------12------12--|-----10-----10--|------14------12--|--
G|--7-----7-----|--11------11------|--9------9------|--12------12------|--
D|---------------|--------------------|-----------------|--------------------|--
A|---------------|--------------------|-----------------|-------------------|--
E|---------------|--------------------|-----------------|-------------------|--
 
E|------------------|--------------------|--------------------|-----------------|--
B|-----10-----10--|------12------15--|------12------15--|-----10-----7--|--
G|--7------7------|--12------12------|--11------11------|--7------7------|--
D|-----------------|--------------------|--------------------|----------------|--
A|-----------------|--------------------|--------------------|-----------------|--
E|-----------------|--------------------|--------------------|-----------------|--
 
E|-------------------|---------------|--------------
B|--------3--2--3--|-----2-----2--|-----0-----0--
G|--2--4-----------|--2-----2-----|--0-----0-----
D|------------------|---------------|--------------
A|------------------|---------------|--------------
E|------------------|---------------|--------------
 
 
Instruments
{"title":"D Not A Drop","strings":[[[".",".",".",".","|",".",".",".",".","|",".",".",".",".","|",".",".",".",".","|"],[".",7,".",7,"|",".",12,".",12,"|",".",10,".",10,"|",".",14,".",12,"|"],[7,".",7,".","|",11,".",11,".","|",9,".",9,".","|",12,".",12,".","|"],[".",".",".",".","|",".",".",".",".","|",".",".",".",".","|",".",".",".",".","|"],[".",".",".",".","|",".",".",".",".","|",".",".",".",".","|",".",".",".",".","|"],[".",".",".",".","|",".",".",".",".","|",".",".",".",".","|",".",".",".",".","|"]],[[".",".",".",".","|",".",".",".",".","|",".",".",".",".","|",".",".",".",".","|"],[".",10,".",10,"|",".",12,".",15,"|",".",12,".",15,"|",".",10,".",7,"|"],[7,".",7,".","|",12,".",12,".","|",11,".",11,".","|",7,".",7,".","|"],[".",".",".",".","|",".",".",".",".","|",".",".",".",".","|",".",".",".",".","|"],[".",".",".",".","|",".",".",".",".","|",".",".",".",".","|",".",".",".",".","|"],[".",".",".",".","|",".",".",".",".","|",".",".",".",".","|",".",".",".",".","|"]],[[".",".",".",".",".","|",".",".",".",".","|",".",".",".","."],[".",".",3,2,3,"|",".",2,".",2,"|",".",0,".",0],[2,4,".",".",".","|",2,".",2,".","|",0,".",0,"."],[".",".",".",".",".","|",".",".",".",".","|",".",".",".","."],[".",".",".",".",".","|",".",".",".",".","|",".",".",".","."],[".",".",".",".",".","|",".",".",".",".","|",".",".",".","."]]],"numberofstrings":6,"notes":["E","B","G","D","A","E","B"],"capo":0,"stringnotes":["E4","B3","G3","D3","A2","E2"],"comments":["D Not A Drop","Stave 2:","Stave 3:"],"timing":[["W","W","W","W",null,"W","W","W","W",null,"W","W","W","W",null,"W","W","W","W"],["W","W","W","W",null,"W","W","W","W",null,"W","W","W","W",null,"W","W","W","W"],["W","W","W","W","W",null,"W","W","W","W",null,"W","W","W","W"]],"timingvisible":false,"tabcounter":15,"stave":2,"totalstaves":3,"instrument":"6guitar","selectedtuning":"6_standard","version":"13"}

Member for

2 years 2 months
Submitted by tmctarplj on Sat, 2019-11-16 09:21