C Only Thing

Chords

01234567891011121314151617181920212223
E
B
G
D
A
E
B
0 1 2 3 4 5 6 7 8 9 10 11 12 13 14 15 16 17 18 19 20 21 22 23
(/) Slide Up  (\) Slide Down  (h) Hammer On  (p) Pull Off  (b) Bend (r) Release (v) Vibrato

C Only Thing

E|--12-----17--|--------------|------------------12--------------------------|--
B|-------------|--12--13------|--13------13--15------15--13----------13------|--
G|------5------|----------14--|------12----------------------12--14------12--|--
D|-------------|--------------|----------------------------------------------|--
A|-------------|--------------|----------------------------------------------|--
E|-------------|--------------|----------------------------------------------|--

Stave 2:

E|----------------------12----------|-------------------------------|--
B|--12--13----------12------15--13--|--8/10--10\8--8/12-----5/8/10--|--
G|----------14--12------------------|-------------------------------|--
D|----------------------------------|-------------------------------|--
A|----------------------------------|-------------------------------|--
E|----------------------------------|-------------------------------|--

Stave 3:

E|--------------------------|------------------|------------|------------|------------|--
B|--8/10\8--8/12--12/13\10--|--12/13/17\15\13--|--17/20\10--|--12/13\10--|--17\15\13--|--
G|--------------------------|------------------|------------|------------|------------|--
D|--------------------------|------------------|------------|------------|------------|--
A|--------------------------|------------------|------------|------------|------------|--
E|--------------------------|------------------|------------|------------|------------|--

							http://www.guitartabcreator.com
Tab Notes
C Only Thing
 
E|--12-----17--|----------------|------------------12-------------------------------|--
B|---------------|--12--13------|--13------13--15------15--13----------13------|--
G|------5-------|----------14---|------12-------------------------12--14------12--|--
D|--------------|----------------|-----------------------------------------------------|--
 
E|-------------------------12-----------|-------------------------------------|--
B|--12--13----------12------15--13--|--8/10--10\8--8/12-----5/8/10--|--
G|----------14--12---------------------|-------------------------------------|--
D|---------------------------------------|-------------------------------------|--
 
E|--------------------------------|----------------------|---------------|---------------|--------------|--
B|--8/10\8--8/12--12/13\10--|--12/13/17\15\13--|--17/20\10--|--12/13\10--|--17\15\13--|--
G|--------------------------------|----------------------|---------------|--------------|---------------|--
D|--------------------------------|----------------------|---------------|--------------|---------------|--
 
 
 
Instruments
{"title":"C Only Thing","strings":[[[12,".",17,"|",".",".",".","|",".",".",".",".",12,".",".",".",".",".",".","|"],[".",".",".","|",12,13,".","|",13,".",13,15,".",15,13,".",".",13,".","|"],[".",5,".","|",".",".",14,"|",".",12,".",".",".",".",".",12,14,".",12,"|"],[".",".",".","|",".",".",".","|",".",".",".",".",".",".",".",".",".",".",".","|"],[".",".",".","|",".",".",".","|",".",".",".",".",".",".",".",".",".",".",".","|"],[".",".",".","|",".",".",".","|",".",".",".",".",".",".",".",".",".",".",".","|"]],[[".",".",".",".",".",12,".",".","|",".",".",".",".",".",".",".",".",".","_",".",".",".",".",".","|"],[12,13,".",".",12,".",15,13,"|",8,"/",10,10,"\\",8,8,"/",12,"_",5,"/",8,"/",10,"|"],[".",".",14,12,".",".",".",".","|",".",".",".",".",".",".",".",".",".","_",".",".",".",".",".","|"],[".",".",".",".",".",".",".",".","|",".",".",".",".",".",".",".",".",".","_",".",".",".",".",".","|"],[".",".",".",".",".",".",".",".","|",".",".",".",".",".",".",".",".",".","_",".",".",".",".",".","|"],[".",".",".",".",".",".",".",".","|",".",".",".",".",".",".",".",".",".","_",".",".",".",".",".","|"]],[[".",".",".",".",".",".",".",".",".",".",".",".",".","|",".",".",".",".",".",".",".",".",".","|",".",".",".",".",".","|",".",".",".",".",".","|",".",".",".",".",".","|"],[8,"/",10,"\\",8,8,"/",12,12,"/",13,"\\",10,"|",12,"/",13,"/",17,"\\",15,"\\",13,"|",17,"/",20,"\\",10,"|",12,"/",13,"\\",10,"|",17,"\\",15,"\\",13,"|"],[".",".",".",".",".",".",".",".",".",".",".",".",".","|",".",".",".",".",".",".",".",".",".","|",".",".",".",".",".","|",".",".",".",".",".","|",".",".",".",".",".","|"],[".",".",".",".",".",".",".",".",".",".",".",".",".","|",".",".",".",".",".",".",".",".",".","|",".",".",".",".",".","|",".",".",".",".",".","|",".",".",".",".",".","|"],[".",".",".",".",".",".",".",".",".",".",".",".",".","|",".",".",".",".",".",".",".",".",".","|",".",".",".",".",".","|",".",".",".",".",".","|",".",".",".",".",".","|"],[".",".",".",".",".",".",".",".",".",".",".",".",".","|",".",".",".",".",".",".",".",".",".","|",".",".",".",".",".","|",".",".",".",".",".","|",".",".",".",".",".","|"]]],"numberofstrings":6,"notes":["E","B","G","D","A","E","B"],"capo":0,"stringnotes":["E4","B3","G3","D3","A2","E2"],"comments":["C Only Thing","Stave 2:","Stave 3:"],"timing":[["W","W","W",null,"W","W","W",null,"W","W","W","W","W","W","W","W","W","W","W"],["W","W","W","W","W","W","W","W",null,"W",null,"W","W",null,"W","W",null,"W",null,"W",null,"W",null,"W"],["W",null,"W","W","W","W",null,"W","W",null,"W",null,"W",null,"W",null,"W",null,"W",null,"W",null,"W",null,"W",null,"W",null,"W",null,"W",null,"W",null,"W",null,"W",null,"W",null,"W"]],"timingvisible":false,"tabcounter":42,"stave":2,"totalstaves":3,"instrument":"6guitar","selectedtuning":"6_standard","version":"13"}

Member for

2 years 2 months
Submitted by tmctarplj on Sat, 2019-11-16 10:40