Sound will begin in 5 seconds

Lauren- Men I Trust

01234567891011121314151617181920212223
E
B
G
D
A
E
B
0 1 2 3 4 5 6 7 8 9 10 11 12 13 14 15 16 17 18 19 20 21 22 23
Song Science #1: How Pros Use 6 Chords to Write Hit Songs
(/) Slide Up  (\) Slide Down  (h) Hammer On  (p) Pull Off  (b) Bend (r) Release (v) Vibrato

Stave 1:

G|----------------------------------9h11--9--------------------5h7--5--------------------2h4--2-----
D|--------7h9--7-----------------9-----------9--------------5----------5--------------2----------2--
A|--0--7----------7--------0--7-----------------------5--3----------------------2--0----------------
E|--------------------------------------------------------------------------------------------------

Stave 2:

G|-----------9h11--9--------------------5h7--5--------------------7h9--7---------------------10h12--10------
D|--------9-----------9--------------5----------5--------------7----------7--------------10-------------10--
A|--0--7-----------------------5--3----------------------3--5----------------------5--8---------------------
E|----------------------------------------------------------------------------------------------------------

Stave 3:

G|----------------------------------------------------------------------------------------------------------
D|----------------------------------------------------------------------------------------------------5--7--
A|--7\---------------------3--5--7-----7--7--7--7--3-----------------------8--7--5-----5--5--5--5--7--------
E|-------5-----5--5--5--5--------------------------------1-----1--1--1--1-----------------------------------

Stave 4:

G|-----------------------------------------------------------------------------------------------------
D|-----------------------------------------------------------------------------------------------------
A|--------------------3--5--7-----7--7--7--7--3--------------------------------------------------------
E|--5-----5--5--5--5--------------------------------1-----1--1--1--1--0--1--3-----3--3--3--3--0--3--8--

Stave 5:

G|-----------------------------------------------------------------------------------------------------
D|-----7-----------------------------------------------3-----------------------------------------5--7--
A|--------------------3--5--7--7--7--7--7--7--3-----------------------8--7--5--5--5--5--5--5--7--------
E|--5-----5--5--5--5--------------------------------1-----1--1--1--1-----------------------------------

Stave 6:

G|--------------------------------------------------------------------------------------------------------
D|-----------------------------5--7-----5h7--5------------------------------------------------------------
A|--5-----3--7----------------------------------7--5h7--5-----0--5--7----------------------7--5-----0--3--
E|-----------------0--3--5------------------------------------------------0--3--5h7--5--------------------

Stave 7:

G|---------------------------------------------------------------------------------------------------------
D|--------------------------------5--7-----5h7--5----------------------------------------------------------
A|--5--5-----3--7----------------------------------7--5h7--------------------------------7--5-----0--3--5--
E|--------------------0--3--5------------------------------1-----0--3--------0--3--5-----------------------

http://www.guitartabcreator.com
Guitar Tab Creator is intended to store guitar tab created through the tool. It currently does not support in-line text editing. Any text you place in here will be lost. If you need to comment on your tab, please use the "Tab Notes" section located below.