Sound will begin in 5 seconds

Nutshell- Alice in Chains (half step down)

01234567891011121314151617181920212223
E
B
G
D
A
E
B
0 1 2 3 4 5 6 7 8 9 10 11 12 13 14 15 16 17 18 19 20 21 22 23
Song Science #1: How Pros Use 6 Chords to Write Hit Songs
(/) Slide Up  (\) Slide Down  (h) Hammer On  (p) Pull Off  (b) Bend (r) Release (v) Vibrato

Stave 1:

E|--12-------------------------------------------10--------------------
B|------12-------------------------------------------10----------------
G|----------12b11--9----------------7--9--10--9----------7-------------
D|--------------------9--10--9--10---------------------------b7--5--4--
A|---------------------------------------------------------------------
E|---------------------------------------------------------------------

Stave 2:

E|--12-------------------------------------------------------------10------------------
B|------12--------------------------------7--8-----7h8p7-----7---------10--------------
G|----------12b11--9----------------7--9------------------9-----9----------7-----------
D|--------------------9--10--9--10------------------------------------------b7--5--4v--
A|-------------------------------------------------------------------------------------
E|-------------------------------------------------------------------------------------

Stave 3:

E|--3--2--3--------
B|--3--3--3--------
G|--0--2-----------
D|--2--0--2--------
A|--2-----3--------
E|--0--------------

Stave 4:

E|-------------------------------------------------
B|--------------------------------------------3p0--
G|---------------------b4------b4----------5-------
D|-----------5-------------5------------------2----
A|-----5--7--------7---------------5----------3----
E|--0-----------0----------------------------------

Stave 5:

E|----------------------------------------10-------------------------------------------
B|-------------------------8-----8---b10-------b10--8--10--8--7--8--7------------------
G|----------------7--9--9-----9----------------------------------------9--7--9--7v-----
D|--------5--7/9-----------------------------------------------------------------------
A|--5--7-------------------------------------------------------------------------------
E|-------------------------------------------------------------------------------------

Stave 6:

E|--------------------------------------------
B|--------------------------------------------
G|--7--9--7-----------------------------------
D|-----------7--8--9--8--7--5--7--5--7--5-----
A|-----------------------------------------7--
E|--------------------------------------------

Stave 7:

E|------------------------------------------------
B|--------------------------------8--10--8--7-----
G|----------------7--9--9v--9--7---------------9--
D|--------5--7/9----------------------------------
A|--5--7------------------------------------------
E|------------------------------------------------

Stave 8:

E|-------0---------------------------------------------------------
B|--7/8--------7---------------------------------------------------
G|----------9-----9--7--7h9--7--7--7-------------------------------
D|------------------------------------9--9--9--7--9--7--5--7--5--7b
A|-----------------------------------------------------------------
E|-----------------------------------------------------------------

http://www.guitartabcreator.com
Guitar Tab Creator is intended to store guitar tab created through the tool. It currently does not support in-line text editing. Any text you place in here will be lost. If you need to comment on your tab, please use the "Tab Notes" section located below.