Riff for The Everhearts

Chords

01234567891011121314151617181920212223
E
B
G
D
A
E
B
0 1 2 3 4 5 6 7 8 9 10 11 12 13 14 15 16 17 18 19 20 21 22 23
(/) Slide Up  (\) Slide Down  (h) Hammer On  (p) Pull Off  (b) Bend (r) Release (v) Vibrato

Measure 1:

E|---------------------------------
B|---------------------------------
G|-6-6-6-6-6-6-6-6-6-6-6-6-6-6-6-6-
D|-7-7-7-7-7-7-7-7-7-7-7-7-7-7-7-7-
A|---------------------------------
E|---------------------------------

Measure 2:

E|---------------------------------
B|-------------------9-9-9-9-9-9-9-
G|-9-9-9-9-9-9-9-9-----------------
D|-7-7-7-7-7-7-7-7-7-7-7-7-7-7-7-7-
A|---------------------------------
E|---------------------------------

Measure 3:

E|-----------------------------------------
B|-9-9-9-9-9-9-9-9-10-10-10-10-10-10-10-10-
G|-9-9-9-9-9-9-9-9-9--9--9--9--9--9--9--9--
D|-----------------------------------------
A|-----------------------------------------
E|-----------------------------------------

Measure 4:

E|-------------12-------------------14----------
B|-10-10-12-10-10-10-12-10-10-14-10-10-10-14-10-
G|-9--9--9--9--9--9--9--9--9--9--9--9--9--9--9--
D|----------------------------------------------
A|----------------------------------------------
E|----------------------------------------------

							http://www.guitartabcreator.com
Tab Notes

I believe will sound best with a pick, with only downstrokes; reminscent of The Strokes

genre
Instruments
{"title":"","strings":[[[".",".",".",".",".",".",".",".",".",".",".",".",".",".",".","."],[".",".",".",".",".",".",".",".",".",".",".",".",".",".",".","."],[6,6,6,6,6,6,6,6,6,6,6,6,6,6,6,6],[7,7,7,7,7,7,7,7,7,7,7,7,7,7,7,7],[".",".",".",".",".",".",".",".",".",".",".",".",".",".",".","."],[".",".",".",".",".",".",".",".",".",".",".",".",".",".",".","."]],[[".",".",".",".",".",".",".",".",".",".",".",".",".",".",".","."],[".",".",".",".",".",".",".",".",".",9,9,9,9,9,9,9],[9,9,9,9,9,9,9,9,".",".",".",".",".",".",".","."],[7,7,7,7,7,7,7,7,7,7,7,7,7,7,7,7],[".",".",".",".",".",".",".",".",".",".",".",".",".",".",".","."],[".",".",".",".",".",".",".",".",".",".",".",".",".",".",".","."]],[[".",".",".",".",".",".",".",".",".",".",".",".",".",".",".","."],[9,9,9,9,9,9,9,9,10,10,10,10,10,10,10,10],[9,9,9,9,9,9,9,9,9,9,9,9,9,9,9,9],[".",".",".",".",".",".",".",".",".",".",".",".",".",".",".","."],[".",".",".",".",".",".",".",".",".",".",".",".",".",".",".","."],[".",".",".",".",".",".",".",".",".",".",".",".",".",".",".","."]],[[".",".",".",".",12,".",".",".",".",".",".",14,".",".","."],[10,10,12,10,10,10,12,10,10,14,10,10,10,14,10],[9,9,9,9,9,9,9,9,9,9,9,9,9,9,9],[".",".",".",".",".",".",".",".",".",".",".",".",".",".","."],[".",".",".",".",".",".",".",".",".",".",".",".",".",".","."],[".",".",".",".",".",".",".",".",".",".",".",".",".",".","."]]],"numberofstrings":6,"notes":["E","B","G","D","A","E","B"],"capo":0,"stringnotes":["E4","B3","G3","D3","A2","E2"],"comments":["Measure 1:","Measure 2:","Measure 3:","Measure 4:"],"timing":[["W","W","W","W","W","W","W","W","W","W","W","W","W","W","W","W"],["W","W","W","W","W","W","W","W","W","W","W","W","W","W","W","W"],["W","W","W","W","W","W","W","W","W","W","W","W","W","W","W","W"],["W","W","W","W","W","W","W","W","W","W","W","W","W","W","W"]],"timingvisible":false,"tabcounter":14,"stave":3,"totalstaves":4,"instrument":"6guitar","selectedtuning":"6_standard","version":"13"}

Member for

7 months 2 weeks
Submitted by tkyeah on Wed, 2020-04-15 17:12