Sound will begin in 5 seconds

Queen - Bohemian Rhapsody

Chords
01234567891011121314151617181920212223
E
B
G
D
A
E
B
0 1 2 3 4 5 6 7 8 9 10 11 12 13 14 15 16 17 18 19 20 21 22 23
(/) Slide Up  (\) Slide Down  (h) Hammer On  (p) Pull Off  (b) Bend (r) Release (v) Vibrato

Stave 1:

E|-----0--------3--3--0--5--5--7--8--5--7--8--5--7--8--1--1-----0--1--3--5--3--1--0h1p0-----0-----------------
B|--1-----3--1--1--1-----5--5--------5--------5--------3--3--2-----------0---------------3-----3--0h1p0-------
G|-----------------------5--5--------5--------5--------2--2--------------0-------------------------------2p0--
D|--2--------------------------------------------------------------------0------------------------------------
A|--3-----------2--2-----------------------------------------------------2------------------------------------
E|--------------------------------------------------------------------------3---------------------------------

Stave 2:

E|--0-----------------0--1--3-----------------0--1--0--0--------0--------0--------0--0-----------1--1-----4--
B|--1-----------1--3--------1-----------1--3--------1--1--------1--------1--------1--1-----------3--3-----4--
G|--0--0--2--4--------------0--0--2--4--------------2--2--------2--------2--------3--3-----------3--3-----5--
D|--2-----------------------0-----------------------2--2--------2--------2--------2--2-----------3--3-----6--
A|--3-----------------------2-----------------------0--0--2--3--0--2--3--0--2--3--0--0--4--3--2--1--1--0--6--
E|--------------------------------------------------------------------------------------------------------4--

Stave 3:

E|--3-----------
B|--3--2--2--2--
G|--4--3--3--3--
D|--5--4--4--4--
A|--5--4--4--4--
E|--3-----------

http://www.guitartabcreator.com
Guitar Tab Creator is intended to store guitar tab created through the tool. It currently does not support in-line text editing. Any text you place in here will be lost. If you need to comment on your tab, please use the "Tab Notes" section located below.