Sound will begin in 5 seconds

Folsom Prison Blues (V2)

Chords
01234567891011121314151617181920212223
E
B
G
D
A
E
B
0 1 2 3 4 5 6 7 8 9 10 11 12 13 14 15 16 17 18 19 20 21 22 23
Song Science #1: How Pros Use 6 Chords to Write Hit Songs
(/) Slide Up  (\) Slide Down  (h) Hammer On  (p) Pull Off  (b) Bend (r) Release (v) Vibrato

Stave 1:

E|--------------|----------------|--------------|--------------|--------------|--
B|--------------|----------------|--------------|--------------|--------------|--
G|--------------|----------------|--------------|--------------|--------------|--
D|--------------|--1--1----------|-----2-----2--|-----2-----2--|-----2-----2--|--
A|-----2--2--2--|--------2-------|--------2-----|--------2-----|--------2-----|--
E|--------------|-----------2b0--|--0-----------|--0-----------|--0-----------|--

Stave 2:

E|--------------|--------------|--------------|--------------|--------------|--
B|--------------|--------------|--------------|--------------|--------------|--
G|--------------|--------------|--------------|--------------|--------------|--
D|-----2-----2--|-----2-----2--|-----2-----2--|-----2-----2--|-----2-----2--|--
A|--------2-----|--------2-----|--------2-----|--------2-----|--------2-----|--
E|--0-----------|--0-----------|--0-----------|--0-----------|--0-----------|--

Stave 3:

E|--------------|--------------|--------------|--------------|--------------|--
B|--------------|--------------|--------------|--------------|--------------|--
G|--------------|--------------|--------------|--------------|--------------|--
D|-----2--------|-----2-----2--|-----2-----2--|-----2-----2--|-----2--------|--
A|--------------|--------------|--------------|--------------|--------------|--
E|--0-----2--4--|--0-----0-----|--0-----0-----|--0-----0-----|--0-----4--2--|--

Stave 4:

E|-----------------|--------------|--------------|--------------|--------------|--
B|-----------------|--------------|--------------|--------------|--------------|--
G|-----------------|--------------|--------------|--------------|--------------|--
D|-----2-----2--2--|-----2-----2--|-----2-----2--|-----2-----2--|-----2--------|--
A|--------2--------|--------2-----|--------2-----|--------2-----|--------------|--
E|--0--------------|--0-----------|--0-----------|--0-----------|--0-----2--4--|--

Stave 5:

E|--------------|--------------|--------------|--------------|--------------|--
B|--------------|--------------|--------------|--------------|--------------|--
G|--------------|--------------|--------------|--------------|--------------|--
D|-----1-----1--|-----1-----1--|-----1-----1--|-----1-----1--|-----2--------|--
A|--2-----------|--2-----------|--2-----------|--2-----------|--0-----------|--
E|--------2-----|--------2-----|--------2-----|--------2-----|--------4--2--|--

Stave 6:

E|-----------------|--------------|--------------|--------------|--------------|--
B|-----------------|--------------|--------------|--------------|--------------|--
G|-----------------|--------------|--------------|--------------|--------------|--
D|-----2-----2--2--|-----2-----2--|-----2-----2--|-----2-----2--|-----2--------|--
A|--------2--------|--------2-----|--------2-----|--------2-----|--------------|--
E|--0--------------|--0-----------|--0-----------|--0-----------|--0-----2--4--|--

Stave 7:

E|-------------|-----7--10--7--10--|-----7-------|-----7--10--7--10--|-------------|--
B|-----------8/|--9----------------|-----------8/|--9----------------|-----------8/|--
G|-------------|-------------------|-------------|-------------------|-------------|--
D|-------------|-------------------|-------------|-------------------|-------------|--
A|-------------|-------------------|-------------|-------------------|-------------|--
E|--0----------|-------------------|-------------|-------------------|-------------|--

Stave 8:

E|-----7--10--7--10--|-----7--------|--------5-----5--5--|--------5-----0-----|--
B|--9----------------|--------9-----|-----2--2-----2--2--|-----2--2--------0--|--
G|-------------------|-----------9--|-----2--------------|-----2--------------|--
D|-------------------|--------------|-----2--------------|--------------------|--
A|-------------------|--------------|--0-----------------|--0-----------------|--
E|-------------------|--------------|--------------------|--------------------|--

Stave 9:

E|--------5-----0-----|---------9-----0-----|--------------0-----|--------------0-----|--
B|-----5-----------0--|-----10--------------|-----0--0-----------|-----0--0-----------|--
G|--6-----------------|--9---------------0--|-----1--1--------0--|-----1--1--------0--|--
D|--------------------|---------------------|-----2--2-----------|-----2--2-----------|--
A|--------------------|---------------------|-----2--2-----------|-----2--2-----------|--
E|--------------------|---------------------|--0-----------------|--0-----------------|--

Stave 10:

E|--------------0-----|--------0-----0-----|--------2-----2-----|--------2-----2-----|--
B|-----0--0-----------|-----0--0-----0-----|--------0-----0-----|--------0-----0-----|--
G|-----1--1--------0--|-----1--1--------1--|-----2--2-----2--2--|-----2--2-----2--2--|--
D|-----2--2-----------|-----2--------------|-----1--------------|-----1--------------|--
A|-----2--2-----------|-----2--------------|--2-----------------|--2-----------------|--
E|--0-----------------|--0-----------------|--------------------|--------------------|--

Stave 11:

E|--------------|-------------|--------0-----0--0--|--------------|--
B|-----0-----0--|-----0-------|--------0-----0--0--|--0-----------|--
G|-----2-----2--|-----2-------|--------1--------0--|--1-----------|--
D|-----1-----1--|-------------|-----2--------------|--2-----------|--
A|--2-----2-----|--2----------|-----2-----2--------|--2-----------|--
E|--------------|------b2--2--|--0-----------------|--------------|--

http://www.guitartabcreator.com
Guitar Tab Creator is intended to store guitar tab created through the tool. It currently does not support in-line text editing. Any text you place in here will be lost. If you need to comment on your tab, please use the "Tab Notes" section located below.