Sound will begin in 5 seconds

vce

Chords
01234567891011121314151617181920212223
E
B
G
D
A
E
B
0 1 2 3 4 5 6 7 8 9 10 11 12 13 14 15 16 17 18 19 20 21 22 23
Song Science #1: How Pros Use 6 Chords to Write Hit Songs
(/) Slide Up  (\) Slide Down  (h) Hammer On  (p) Pull Off  (b) Bend (r) Release (v) Vibrato

Stave 1:

E|-----------------------------------------------------------------------------------
B|-----------------------------------------------------------------------------------
G|--------------1--------------------------------------------------------------------
D|-----3--1--3-----3--1-----------3--1-----------------------------------1-----------
A|-----------------------3--------------3--3--2--1--2--3--------3--1--3-----3--1--3--
E|--1--------------------------1-----------------------------1-----------------------

Stave 2:

E|--------------------------------
B|--------------------------------
G|--------------------------------
D|-----3--1-----------------------
A|-----------3--3--2--1--2--5-----
E|--1-----------------------------

Stave 3:

E|--------------------------------------------------------------------------------
B|--------------------------------------------------------------------------------
G|--------------------------------------------------------------------------------
D|--------3--------------6--------8--------------6--------3--------------6--------
A|--------------------------------------------------------------------------------
E|--1--1-----4--4--4--4-----6--6-----4--4--4--4-----1--1-----4--4--4--4-----6--6--

Stave 4:

E|--------------------
B|--------------------
G|--------------------
D|--8--------------6--
A|--------------------
E|-----4--4--4--4-----

Stave 5:

E|--------------------x--x--x--x--
B|--------------------x--x--x--x--
G|--------------------x--x--x--x--
D|--3--6--8--6--3-----x--x--x--x--
A|--------------------x--x--x--x--
E|--1--4--6--4--1-----x--x--x--x--

Stave 6:

E|--------------------------------------------------
B|--------------------------------------------------
G|--------------------------------------------------
D|--------3--------------6--------8--------------6--
A|--------------------------------------------------
E|--1--1-----4--4--4--4-----6--6-----4--4--4--4-----

Stave 7:

E|--------------------x--x--x--x-----
B|--------------------x--x--x--x-----
G|--------------------x--x--x--x-----
D|--3--6--8--6--3-----x--x--x--x-----
A|--------------------x--x--x--x-----
E|--1--4--6--4--1-----x--x--x--x-----

Stave 8:

E|----------------------------------------------------------------------
B|----------------------------------------------------------------------
G|------------------13--------------------------------------------------
D|------15--13--15------15--13----------15--13--------------------------
A|------------------------------15--------------15--15--14--13--14--15--
E|--13------------------------------13----------------------------------

Stave 9:

E|----------------------------------------------------------------------
B|----------------------------------------------------------------------
G|------------------13--------------------------------------------------
D|------15--13--15------15--13----------15--13--------------------------
A|------------------------------15--------------15--15--14--13--14--15--
E|--13------------------------------13----------------------------------

Stave 10:

E|--------------------------------------------------------------
B|--------------------------------------------------------------
G|--------------------------------------------------------------
D|------15--13----------------------15--13----------------------
A|--------------15--14--13------------------15--14--13--11------
E|--13----------------------13--13--------------------------13--

Stave 11:

E|-------------------------------------------------------------------------------
B|-------------------------------------------------------------------------------
G|-------------------------------------------------------------------------------
D|-----3------15--3-----3------15--13---------3------15--15--13------------------
A|-------------------------------------15------------------------15--13--11------
E|--1-----13---------1-----13--------------1-----13--------------------------13--

Stave 12:

E|--
B|--
G|--
D|--
A|--
E|--

http://www.guitartabcreator.com
Guitar Tab Creator is intended to store guitar tab created through the tool. It currently does not support in-line text editing. Any text you place in here will be lost. If you need to comment on your tab, please use the "Tab Notes" section located below.