Sound will begin in 5 seconds

Cavatina remake

Chords
01234567891011121314151617181920212223
E
B
G
D
A
E
B
0 1 2 3 4 5 6 7 8 9 10 11 12 13 14 15 16 17 18 19 20 21 22 23
(/) Slide Up  (\) Slide Down  (h) Hammer On  (p) Pull Off  (b) Bend (r) Release (v) Vibrato

Stave 1:

E|--7-----------------6----------------------------9---------------------------------------------7--9-----
B|-----------5--5--------------9-----------10--12------------10-------------------10---------10-----------
G|--------4--------4--------8-----8-----------------------9------9-------------9------9-------------------
D|-----6-----------------6-----------6----------------11------------11-----11------------11------------7--
A|--------------------6-------------------------------------------------9---------------------------------
E|--0-----------------------------------9----------------------------------------------------7------------

Stave 2:

E|------------------------------7------7--------------------------------5--4--4-----------------2--
B|-----10--------------------------10-----------9--------------0-----0-----------------2-----------
G|--9------9--------------8------------------8-----8--------------7-----------------2-----2--------
D|------------7--------7-----7------------9-----------9-----6--------------------2-----------2-----
A|------------------9-----------9---------------------------------------------0-----------------5--
E|---------------7---------------------0-----------------0-----------------------------------------

Stave 3:

E|-----------------0--2-----------------0-----------------0-----------------------2-----------0-----------
B|--------2--------------------0-----------------0-----------------0--------------------4-----------------
G|-----2-----2--------------0-----0-----------0-----0-----------2-----2-----------2-----2-----------------
D|--4-----------4--------0-----------0-----2-----------2-----4-----------4-----4-----4-----4--7--4--6-----
A|--------------------------------------3-----------------------------------2--------------------------7--
E|--------------------3-----------------------------------2-----------------------------------0-----------

Stave 4:

E|--------0-----0-----7--11--12--
B|-----0-----0-----9-------------
G|-------------------------------
D|--6----------------------------
A|-------------------------------
E|---------------------------9---

http://www.guitartabcreator.com
Guitar Tab Creator is intended to store guitar tab created through the tool. It currently does not support in-line text editing. Any text you place in here will be lost. If you need to comment on your tab, please use the "Tab Notes" section located below.