Surrenderdorothy - Soycandles

01234567891011121314151617181920212223
E
B
G
D
A
E
B
0 1 2 3 4 5 6 7 8 9 10 11 12 13 14 15 16 17 18 19 20 21 22 23
(/) Slide Up  (\) Slide Down  (h) Hammer On  (p) Pull Off  (b) Bend (r) Release (v) Vibrato

This part goes trough the whole song

D|------------------------------------------------------------------------------------------
A|------------------------------------------------------------------------------------------
F|--------2--4p2-----4p2--------2--4p2-----------------2--4p2--0-----2--------2--4p2--0-----
C|-----0----------0----------0----------0-----------2----------------------2-------------0--
G|------------------------------------------------------------------------------------------
D|--3---------------------3----------------3--2--0----------------0-----0-------------------

This part you play at the ending

D|------------------------------------------------------------------------------------------------
A|------------------------------------------------------------------------------------------------
F|--------2--4p2-----4p2--------2--4p2-----------------2--4p2--0-----2--------2--4p2--0-----------
C|-----0----------0----------0----------0-----------2----------------------2----------------0-----
G|------------------------------------------------------------------------------------------------
D|--3---------------------3----------------3--2--0----------------0-----0----------------2-----3--

							http://www.guitartabcreator.com
Chords

Instruments
{"strings":[[[".",".",".",".",".",".",".",".",".",".",".",".",".",".",".",".",".",".",".",".",".",".",".",".",".",".",".",".",".",".",".",".",".",".",".","."],[".",".",".",".",".",".",".",".",".",".",".",".",".",".",".",".",".",".",".",".",".",".",".",".",".",".",".",".",".",".",".",".",".",".",".","."],[".",".",2,4,"p",2,".",4,"p",2,".",".",2,4,"p",2,".",".",".",".",".",2,4,"p",2,0,".",2,".",".",2,4,"p",2,0,"."],[".",0,".",".",".",".",0,".",".",".",".",0,".",".",".",".",0,".",".",".",2,".",".",".",".",".",".",".",".",2,".",".",".",".",".",0],[".",".",".",".",".",".",".",".",".",".",".",".",".",".",".",".",".",".",".",".",".",".",".",".",".",".",".",".",".",".",".",".",".",".",".","."],[3,".",".",".",".",".",".",".",".",".",3,".",".",".",".",".",".",3,2,0,".",".",".",".",".",".",0,".",0,".",".",".",".",".",".","."]],[[".",".",".",".",".",".",".",".",".",".",".",".",".",".",".",".",".",".",".",".",".",".",".",".",".",".",".",".",".",".",".",".",".",".",".",".",".","."],[".",".",".",".",".",".",".",".",".",".",".",".",".",".",".",".",".",".",".",".",".",".",".",".",".",".",".",".",".",".",".",".",".",".",".",".",".","."],[".",".",2,4,"p",2,".",4,"p",2,".",".",2,4,"p",2,".",".",".",".",".",2,4,"p",2,0,".",2,".",".",2,4,"p",2,0,".",".","."],[".",0,".",".",".",".",0,".",".",".",".",0,".",".",".",".",0,".",".",".",2,".",".",".",".",".",".",".",".",2,".",".",".",".",".",".",0,"."],[".",".",".",".",".",".",".",".",".",".",".",".",".",".",".",".",".",".",".",".",".",".",".",".",".",".",".",".",".",".",".",".",".",".",".",".",".","."],[3,".",".",".",".",".",".",".",".",".",3,".",".",".",".",".",".",3,2,0,".",".",".",".",".",".",0,".",0,".",".",".",".",".",".",2,".",3]]],"numberofstrings":6,"notes":["D","A","F","C","G","D"],"capo":0,"stringnotes":["D3","A2","F2","C2","G1","D1"],"comments":["This part goes trough the whole song","This part you play at the ending"],"timing":[["W","W","W","W",null,"W","W","W",null,"W","W","W","W","W",null,"W","W","W","W","W","W","W","W",null,"W","W","W","W","W","W","W","W",null,"W","W","W"],["W","W","W","W",null,"W","W","W",null,"W","W","W","W","W",null,"W","W","W","W","W","W","W","W",null,"W","W","W","W","W","W","W","W",null,"W","W","W","W","W"]],"timingvisible":false,"tabcounter":38,"stave":1,"totalstaves":2,"instrument":"6guitar","selectedtuning":"Full Step Down","version":"13"}

Member for

3 months 2 weeks
Picture
About Me
Im here to upload guitar tabs for my YouTube channel .
Submitted by TinoBear on Sat, 2020-11-07 04:33