Surrenderdorothy - Illleaveituptoyou

Chords

01234567891011121314151617181920212223
E
B
G
D
A
E
B
0 1 2 3 4 5 6 7 8 9 10 11 12 13 14 15 16 17 18 19 20 21 22 23
(/) Slide Up  (\) Slide Down  (h) Hammer On  (p) Pull Off  (b) Bend (r) Release (v) Vibrato

You repeat this about  (8x ) times trough the song

E|--------0--------------0--------------0--------------0--------------0-----------------0--------------0--------------0--------
B|--------------0--------------0--------------0--------------0-----------------0--------------0--------------0--------------0--
G|-----------------------------------------------------------------------------------------------------------------------------
D|-----2-----2--------2-----2--------2-----2--------2-----2--------2--------2--------2-----2--------2-----2--------2-----2-----
A|--4--------------2--------------0-----------------------------4--------4--------2--------------0-----------------------------
E|-----------------------------------------------4--------------------------------------------------------------4--------------

In the end you play those 2note chords

E|-----------------------------------------------------------------------
B|-----------------------------------------------------------------------
G|-----------------------------------------------------------------------
D|--2-----2--2--2-----2-----2--2--2-----2-----2--2--2--------------------
A|--4-----4--4--4-----2-----2--2--2-----0-----0--0--0--------------------
E|--------------------------------------------------------4-----4--5--0--

							http://www.guitartabcreator.com
Instruments
{"strings":[[[".",".",0,".",".",".",".",0,".",".",".",".",0,".",".",".",".",0,".",".",".",".",0,".",".",".",".",".",0,".",".",".",".",0,".",".",".",".",0,".","."],[".",".",".",".",0,".",".",".",".",0,".",".",".",".",0,".",".",".",".",0,".",".",".",".",".",0,".",".",".",".",0,".",".",".",".",0,".",".",".",".",0],[".",".",".",".",".",".",".",".",".",".",".",".",".",".",".",".",".",".",".",".",".",".",".",".",".",".",".",".",".",".",".",".",".",".",".",".",".",".",".",".","."],[".",2,".",2,".",".",2,".",2,".",".",2,".",2,".",".",2,".",2,".",".",2,".",".",2,".",".",2,".",2,".",".",2,".",2,".",".",2,".",2,"."],[4,".",".",".",".",2,".",".",".",".",0,".",".",".",".",".",".",".",".",".",4,".",".",4,".",".",2,".",".",".",".",0,".",".",".",".",".",".",".",".","."],[".",".",".",".",".",".",".",".",".",".",".",".",".",".",".",4,".",".",".",".",".",".",".",".",".",".",".",".",".",".",".",".",".",".",".",".",4,".",".",".","."]],[[".","_",".",".",".","_",".","_",".",".",".","_",".","_",".",".",".","_",".","_",".",".","."],[".","_",".",".",".","_",".","_",".",".",".","_",".","_",".",".",".","_",".","_",".",".","."],[".","_",".",".",".","_",".","_",".",".",".","_",".","_",".",".",".","_",".","_",".",".","."],[2,"_",2,2,2,"_",2,"_",2,2,2,"_",2,"_",2,2,2,"_",".","_",".",".","."],[4,"_",4,4,4,"_",2,"_",2,2,2,"_",0,"_",0,0,0,"_",".","_",".",".","."],[".","_",".",".",".","_",".","_",".",".",".","_",".","_",".",".",".","_",4,"_",4,5,0]]],"numberofstrings":6,"notes":["E","B","G","D","A","E","B"],"capo":0,"stringnotes":["E4","B3","G3","D3","A2","E2"],"comments":["You repeat this about (8x ) times trough the song","In the end you play those 2note chords"],"timing":[["W","W","W","W","W","W","W","W","W","W","W","W","W","W","W","W","W","W","W","W","W","W","W","W","W","W","W","W","W","W","W","W","W","W","W","W","W","W","W","W","W","W","W"],["W",null,"W","W","W","W","W","W","W","W","W",null,"W","W","W","W","W","W","W","W","W","W","W"]],"timingvisible":false,"tabcounter":23,"stave":1,"totalstaves":2,"instrument":"6guitar","selectedtuning":"6_standard","version":"13"}

Member for

1 week 3 days
Picture
About Me
Im here to upload guitar tabs for my YouTube channel .
Submitted by TinoBear on Thu, 2020-10-15 12:58