Surrenderdorothy - ihavealongdriveaheadofme

Chords

01234567891011121314151617181920212223
E
B
G
D
A
E
B
0 1 2 3 4 5 6 7 8 9 10 11 12 13 14 15 16 17 18 19 20 21 22 23
(/) Slide Up  (\) Slide Down  (h) Hammer On  (p) Pull Off  (b) Bend (r) Release (v) Vibrato

around (7x) times in the beginning

C |-------------------------0-----------------------------------
G |-------------------------------------------------------------
Eb|--------0--2----------2-----2--------0--2--------0--------0--
Bb|-----0-----------0/3--------------0-----------0--------0-----
F |-------------------------------1-----------------------------
Bb|--0-----------0----------------------------5--------3--------

Then this goes  (4x ) and after the 4th you play the slide part and continue the first pattern

C |-------------------------------------------------------------0-----------------------------------
G |-------------------------------------------------------------------------------------------------
Eb|--------0--2--------0--2--------0--2--------0--2----------2-----2--------0--2--------0--------0--
Bb|-----0-----------0-----------0-----------0-----------0/3--------------0-----------0--------0-----
F |-------------------------------------------------------------------1-----------------------------
Bb|--0-----------0-----------0-----------0-----------0----------------------------5--------3--------

							http://www.guitartabcreator.com
Instruments
{"strings":[[[".",".",".",".",".",".",".",".",".",0,".",".",".",".",".",".",".",".",".",".","."],[".",".",".",".",".",".",".",".",".",".",".",".",".",".",".",".",".",".",".",".","."],[".",".",0,2,".",".",".",".",2,".",2,".",".",0,2,".",".",0,".",".",0],[".",0,".",".",".",0,"/",3,".",".",".",".",0,".",".",".",0,".",".",0,"."],[".",".",".",".",".",".",".",".",".",".",".",1,".",".",".",".",".",".",".",".","."],[0,".",".",".",0,".",".",".",".",".",".",".",".",".",".",5,".",".",3,".","."]],[[".",".",".",".",".",".",".",".",".",".",".",".",".",".",".",".",".",".",".",".",".",0,".",".",".",".",".",".",".",".",".",".","."],[".",".",".",".",".",".",".",".",".",".",".",".",".",".",".",".",".",".",".",".",".",".",".",".",".",".",".",".",".",".",".",".","."],[".",".",0,2,".",".",0,2,".",".",0,2,".",".",0,2,".",".",".",".",2,".",2,".",".",0,2,".",".",0,".",".",0],[".",0,".",".",".",0,".",".",".",0,".",".",".",0,".",".",".",0,"/",3,".",".",".",".",0,".",".",".",0,".",".",0,"."],[".",".",".",".",".",".",".",".",".",".",".",".",".",".",".",".",".",".",".",".",".",".",".",1,".",".",".",".",".",".",".",".","."],[0,".",".",".",0,".",".",".",0,".",".",".",0,".",".",".",0,".",".",".",".",".",".",".",".",".",".",5,".",".",3,".","."]]],"numberofstrings":6,"notes":["C","G","DsEb","AsBb","F","AsBb"],"capo":0,"stringnotes":["C3","G2","Eb2","Bb1","F1","Bb0"],"comments":["around (7x) times in the beginning","Then this goes (4x ) and after the 4th you play the slide part and continue the first pattern"],"timing":[["W","W","W","W","W","W","W","W","W","W","W","W","W","W","W","W","W","W","W","W","W","W"],["W","W","W","W","W","W","W","W","W","W","W","W","W","W","W","W","W","W",null,"W","W","W","W","W","W","W","W","W","W","W","W","W","W"]],"timingvisible":false,"tabcounter":33,"stave":1,"totalstaves":2,"instrument":"6guitar","selectedtuning":"Drop A#","version":"13"}

Member for

3 months 1 week
Picture
About Me
Im here to upload guitar tabs for my YouTube channel .
Submitted by TinoBear on Wed, 2020-10-14 13:11