OREGONTRAIL - TillTheWhitesOfMyEyesDryOut

01234567891011121314151617181920212223
E
B
G
D
A
E
B
0 1 2 3 4 5 6 7 8 9 10 11 12 13 14 15 16 17 18 19 20 21 22 23
(/) Slide Up  (\) Slide Down  (h) Hammer On  (p) Pull Off  (b) Bend (r) Release (v) Vibrato

This is the intro play it once

E|-----------------------------------------------------------------------------
B|-----------------------------------------------------------------------------
G|-----------------------------------------------------------------------------
D|-----------------------------------------0-----0-----0-----0-----------------
A|-----4-----4-----5-----5-----5-----5-----------------------------------------
E|--0-----0-----2-----2-----2-----2-----1-----1-----1-----1--------------------

You repeat this part to the end 

E|----------------------------------------------------------------------------------------------------
B|----------------------------------------------------------------------------------------------------
G|-------------------------------------4--------------------------------------------------------------
D|-----4-----4-----4-----4--4/7--7-----------7-----2-----2-----2-----4-----0-----2-----2-----4-----0--
A|--2-----2-----2-----2-----2-5-----5-----------------0-----0-----0-----------0-----0-----0-----------
E|----------------------------------------------------------------------------------------------------

							http://www.guitartabcreator.com
Chords

Instruments
{"strings":[[[".",".",".",".",".",".",".",".",".",".",".",".",".",".",".",".",".",".",".",".","_","_","_","_","_"],[".",".",".",".",".",".",".",".",".",".",".",".",".",".",".",".",".",".",".",".","_","_","_","_","_"],[".",".",".",".",".",".",".",".",".",".",".",".",".",".",".",".",".",".",".",".","_","_","_","_","_"],[".",".",".",".",".",".",".",".",".",".",".",".",".",0,".",0,".",0,".",0,"_","_","_","_","_"],[".",4,".",4,".",5,".",5,".",5,".",5,".",".",".",".",".",".",".",".","_","_","_","_","_"],[0,".",0,".",2,".",2,".",2,".",2,".",1,".",1,".",1,".",1,".","_","_","_","_","_"]],[[".",".",".",".",".",".",".",".",".",".",".",".",".",".","_",".","_",".",".",".",".",".",".",".","_",".",".",".",".",".",".",".","_","."],[".",".",".",".",".",".",".",".",".",".",".",".",".",".","_",".","_",".",".",".",".",".",".",".","_",".",".",".",".",".",".",".","_","."],[".",".",".",".",".",".",".",".",".",".",".",".",".",4,"_",".","_",".",".",".",".",".",".",".","_",".",".",".",".",".",".",".","_","."],[".",4,".",4,".",4,".",4,4,"/",7,7,".",".","_",7,"_",2,".",2,".",2,".",4,"_",0,".",2,".",2,".",4,"_",0],[2,".",2,".",2,".",2,".",2,".",5,".",5,".","_",".","_",".",0,".",0,".",0,".","_",".",0,".",0,".",0,".","_","."],[".",".",".",".",".",".",".",".",".",".",".",".",".",".","_",".","_",".",".",".",".",".",".",".","_",".",".",".",".",".",".",".","_","."]]],"numberofstrings":6,"notes":["E","B","G","D","A","E","B"],"capo":0,"stringnotes":["E4","B3","G3","D3","A2","E2"],"comments":["This is the intro play it once","You repeat this part to the end "],"timing":[["W","W","W","W","W","W","W","W","W","W","W","W","W","W","W","W","W","W","W","W","W","W","W","W","W"],["W","W","W","W","W","W","W","W","W",null,"W","W","W","W","W","W","W","W","W","W","W","W","W","W","W","W","W","W","W","W","W","W","W","W"]],"timingvisible":false,"tabcounter":34,"stave":1,"totalstaves":2,"instrument":"6guitar","selectedtuning":"6_standard","version":"13"}

Member for

1 year 1 month
Picture
About Me
Im here to upload guitar tabs for my YouTube channel .
Submitted by TinoBear on Mon, 2021-03-29 14:27