NyLon - Help Me

01234567891011121314151617181920212223
E
B
G
D
A
E
B
0 1 2 3 4 5 6 7 8 9 10 11 12 13 14 15 16 17 18 19 20 21 22 23
(/) Slide Up  (\) Slide Down  (h) Hammer On  (p) Pull Off  (b) Bend (r) Release (v) Vibrato

IMPORTANT !! The 12 on the Estring is a HARMONIC!!

E|-----7-10-------10---7----------12------------12---------------------------------7-
B|---7-------------------7---7-10----------7-10------------7---------7-----------7---
G|-7-----------------9-----7-------------7---------------7---------7-----------9-----
D|-----------------------------------------------------5---------5-----------9-------
A|-------------------------------------------------------------------------7---------
E|-----------------------------------------------------------------------------------

Stave 2:

E|-----7-10-------10---7----------12------------12-----------------------------------7-
B|---7-------------------7---7-10----------7-10------------7---------7-------------7---
G|-7-----------------9-----7-------------7---------------7---------7-------------9-----
D|-----------------------------------------------------5---------5-------------9-------
A|---------------------------------------------------------------------------7---------
E|-----------------------------------------------------------------------3-2-----------

							http://www.guitartabcreator.com
Chords

Instruments
{"strings":[[[".",".",7,10,"_","_","_",10,".",7,".",".",".",".",12,"_","_",".",".",".",12,"_","_",".",".",".","_","_",".",".",".","_","_",".",".",".",".",7],[".",7,".",".","_","_","_",".",".",".",7,".",7,10,".","_","_",".",7,10,".","_","_",".",".",7,"_","_",".",".",7,"_","_",".",".",".",7,"."],[7,".",".",".","_","_","_",".",9,".",".",7,".",".",".","_","_",7,".",".",".","_","_",".",7,".","_","_",".",7,".","_","_",".",".",9,".","."],[".",".",".",".","_","_","_",".",".",".",".",".",".",".",".","_","_",".",".",".",".","_","_",5,".",".","_","_",5,".",".","_","_",".",9,".",".","."],[".",".",".",".","_","_","_",".",".",".",".",".",".",".",".","_","_",".",".",".",".","_","_",".",".",".","_","_",".",".",".","_","_",7,".",".",".","."],[".",".",".",".","_","_","_",".",".",".",".",".",".",".",".","_","_",".",".",".",".","_","_",".",".",".","_","_",".",".",".","_","_",".",".",".",".","."]],[[".",".",7,10,"_","_","_",10,".",7,".",".",".",".",12,"_","_",".",".",".",12,"_","_",".",".",".","_","_",".",".",".","_",".",".",".",".",".",".",7],[".",7,".",".","_","_","_",".",".",".",7,".",7,10,".","_","_",".",7,10,".","_","_",".",".",7,"_","_",".",".",7,"_",".",".",".",".",".",7,"."],[7,".",".",".","_","_","_",".",9,".",".",7,".",".",".","_","_",7,".",".",".","_","_",".",7,".","_","_",".",7,".","_",".",".",".",".",9,".","."],[".",".",".",".","_","_","_",".",".",".",".",".",".",".",".","_","_",".",".",".",".","_","_",5,".",".","_","_",5,".",".","_",".",".",".",9,".",".","."],[".",".",".",".","_","_","_",".",".",".",".",".",".",".",".","_","_",".",".",".",".","_","_",".",".",".","_","_",".",".",".","_",".",".",7,".",".",".","."],[".",".",".",".","_","_","_",".",".",".",".",".",".",".",".","_","_",".",".",".",".","_","_",".",".",".","_","_",".",".",".","_",3,2,".",".",".",".","."]]],"numberofstrings":6,"notes":["E","B","G","D","A","E","B"],"capo":0,"stringnotes":["E4","B3","G3","D3","A2","E2"],"comments":["IMPORTANT !! The 12 on the Estring is a HARMONIC!!","Stave 2:"],"timing":[["W","W","W","W","W","W","W","W","W","W","W","W","W","W","W","W","W","W","W","W","W","W","W","W","W","W","W","W","W","W","W","W","W","W","W","W","W","W"],["W","W","W","W","W","W","W","W","W","W","W","W","W","W","W","W","W","W","W","W","W","W","W","W","W","W","W","W","W","W","W","W","W","W","W","W","W","W","W"]],"timingvisible":false,"tabcounter":39,"stave":1,"totalstaves":2,"instrument":"6guitar","selectedtuning":"6_standard","version":"13"}

Member for

1 year 3 months
Picture
About Me
Im here to upload guitar tabs for my YouTube channel .
Submitted by TinoBear on Mon, 2021-11-15 14:30