Kodyak - Afraid of feeling

01234567891011121314151617181920212223
E
B
G
D
A
E
B
0 1 2 3 4 5 6 7 8 9 10 11 12 13 14 15 16 17 18 19 20 21 22 23
(/) Slide Up  (\) Slide Down  (h) Hammer On  (p) Pull Off  (b) Bend (r) Release (v) Vibrato

GUITAR ( 1 ) : Strumming pattern to the end of the song. Downs and ups in my youtube video explained . 

E|-3---3-----3-3---3---3-3---3-3-3---------------------------------3---3---3-3---3---3-3-3-3-3-3---
B|-x---x-----x-x---x---x-x---x-x-x---1---1-----1-1-1---1---1-0h1---x---x---x-x---x---x-x-x-x-x-x---
G|-2---2-----2-2---2---2-2---2-2-2---0---0-----0-0-0---0---0-----0-2---2---2-2---2---2-2-2-2-2-2---
D|-2---2-----2-2---2---2-2---2-2-2---2---2-----2-2-2---2---2-------2---2---2-2---2---2-2-2-2-2-2---
A|-0---0-----0-0---0---0-0---0-0-0---3---3-----3-3-3---3---3-------0---0---0-0---0---0-0-0-0-0-0---
D|-------------------------------------------------------------------------------------------------

-->

E|---------------------------------
B|-1---1-----1-1-1-----1---1-1-1-1-
G|-0---0-----0-0-0-----0---0-0-0-0-
D|-2---2-----2-2-2-----2---2-2-2-2-
A|-3---3-----3-3-3-----3---3-3-3-3-
D|---------------------------------

GUITAR ( 2 ) : BASS LINE . you repeat this for all of the bass part of the song 

E|-----------------------------------------------------------------------------------------------------------|-|-
B|-----------------------------------------------------------------------------------------------------------|-|-
G|-----------------------------------------------------------------------------------------------------------|-|-
D|---------------------------------------------------------------------2-------------------------------------|-|-
A|-3-----2-------------------------------------------------3-----2-----5---------------0---------------------|-|-
D|-------------5---------------5-----2-----0-------------------------------------5-----------0---------------|-|-

GUITAR ( 3 ) First Time Over the BASS LINE

E|---------------0-------
B|---------------------1-
G|-2---------------------
D|-----------------------
A|-----------------------
D|-----------------------

GUITAR ( 3 ) Second Time OVER THE BASS LINE

E|-----------------0---3-----------7-
B|---------0---1-------------1-------
G|-2-----0---------------------------
D|-----------------------------------
A|-----------------------------------
D|-----------------------------------

							http://www.guitartabcreator.com
Chords

Tab Notes
Its good with a loop pedal. Check out my channel for more instructions YT : TinoBear
Instruments
{"strings":[[[3,"_",3,"_","_",3,3,"_",3,"_",3,3,"_",3,3,3,"_",".","_",".","_","_",".",".",".","_",".","_",".",".",".",".",".",3,"_",3,"_",3,3,"_",3,"_",3,3,3,3,3,3,"_"],["x0","_","x0","_","_","x0","x0","_","x0","_","x0","x0","_","x0","x0","x0","_",1,"_",1,"_","_",1,1,1,"_",1,"_",1,0,"h",1,".","x0","_","x0","_","x0","x0","_","x0","_","x0","x0","x0","x0","x0","x0","_"],[2,"_",2,"_","_",2,2,"_",2,"_",2,2,"_",2,2,2,"_",0,"_",0,"_","_",0,0,0,"_",0,"_",0,".",".",".",0,2,"_",2,"_",2,2,"_",2,"_",2,2,2,2,2,2,"_"],[2,"_",2,"_","_",2,2,"_",2,"_",2,2,"_",2,2,2,"_",2,"_",2,"_","_",2,2,2,"_",2,"_",2,".",".",".",".",2,"_",2,"_",2,2,"_",2,"_",2,2,2,2,2,2,"_"],[0,"_",0,"_","_",0,0,"_",0,"_",0,0,"_",0,0,0,"_",3,"_",3,"_","_",3,3,3,"_",3,"_",3,".",".",".",".",0,"_",0,"_",0,0,"_",0,"_",0,0,0,0,0,0,"_"],[".","_",".","_","_",".",".","_",".","_",".",".","_",".",".",".","_",".","_",".","_","_",".",".",".","_",".","_",".",".",".",".",".",".","_",".","_",".",".","_",".","_",".",".",".",".",".",".","_"]],[[".","_",".","_","_",".",".",".","_","_",".","_",".",".",".","."],[1,"_",1,"_","_",1,1,1,"_","_",1,"_",1,1,1,1],[0,"_",0,"_","_",0,0,0,"_","_",0,"_",0,0,0,0],[2,"_",2,"_","_",2,2,2,"_","_",2,"_",2,2,2,2],[3,"_",3,"_","_",3,3,3,"_","_",3,"_",3,3,3,3],[".","_",".","_","_",".",".",".","_","_",".","_",".",".",".","."]],[[".","_","_",".","_","_",".","_","_","_","_","_","_","_",".","_","_",".","_","_",".","_","_","_","_","_","_","_",".","_","_",".","_","_",".","_","_","_","_",".","_","_",".","_","_",".","_","_","_","_","_","_","_","|","|"],[".","_","_",".","_","_",".","_","_","_","_","_","_","_",".","_","_",".","_","_",".","_","_","_","_","_","_","_",".","_","_",".","_","_",".","_","_","_","_",".","_","_",".","_","_",".","_","_","_","_","_","_","_","|","|"],[".","_","_",".","_","_",".","_","_","_","_","_","_","_",".","_","_",".","_","_",".","_","_","_","_","_","_","_",".","_","_",".","_","_",".","_","_","_","_",".","_","_",".","_","_",".","_","_","_","_","_","_","_","|","|"],[".","_","_",".","_","_",".","_","_","_","_","_","_","_",".","_","_",".","_","_",".","_","_","_","_","_","_","_",".","_","_",".","_","_",2,"_","_","_","_",".","_","_",".","_","_",".","_","_","_","_","_","_","_","|","|"],[3,"_","_",2,"_","_",".","_","_","_","_","_","_","_",".","_","_",".","_","_",".","_","_","_","_","_","_","_",3,"_","_",2,"_","_",5,"_","_","_","_",".","_","_",0,"_","_",".","_","_","_","_","_","_","_","|","|"],[".","_","_",".","_","_",5,"_","_","_","_","_","_","_",5,"_","_",2,"_","_",0,"_","_","_","_","_","_","_",".","_","_",".","_","_",".","_","_","_","_",5,"_","_",".","_","_",0,"_","_","_","_","_","_","_","|","|"]],[[".","_","_","_","_","_","_",0,"_","_","."],[".","_","_","_","_","_","_",".","_","_",1],[2,"_","_","_","_","_","_",".","_","_","."],[".","_","_","_","_","_","_",".","_","_","."],[".","_","_","_","_","_","_",".","_","_","."],[".","_","_","_","_","_","_",".","_","_","."]],[[".","_","_",".",".","_",".","_",0,"_",3,"_","_",".","_","_",7],[".","_","_",".",0,"_",1,"_",".","_",".","_","_",1,"_","_","."],[2,"_","_",0,".","_",".","_",".","_",".","_","_",".","_","_","."],[".","_","_",".",".","_",".","_",".","_",".","_","_",".","_","_","."],[".","_","_",".",".","_",".","_",".","_",".","_","_",".","_","_","."],[".","_","_",".",".","_",".","_",".","_",".","_","_",".","_","_","."]]],"numberofstrings":6,"notes":["E","B","G","D","A","D"],"capo":0,"stringnotes":["E3","B2","G2","D2","A1","D1"],"comments":["GUITAR ( 1 ) : Strumming pattern to the end of the song. Downs and ups in my youtube video explained . ","-->","GUITAR ( 2 ) : BASS LINE . you repeat this for all of the bass part of the song ","GUITAR ( 3 ) First Time Over the BASS LINE","GUITAR ( 3 ) Second Time OVER THE BASS LINE"],"timing":[["W","W","W","W","W","W","W","W","W","W","W","W","W","W","W","W","W","W","W","W","W","W","W","W","W","W","W","W","W","W",null,"W","W","W","W","W","W","W","W","W","W","W","W","W","W","W","W","W"],["W","W","W","W","W","W","W","W","W","W","W","W","W","W","W","W"],["W","W","W","W","W","W","W","W","W","W","W","W","W","W","W","W","W","W","W","W","W","W","W","W","W","W","W","W","W","W","W","W","W","W","W","W","W","W","W","W","W","W","W","W","W","W","W","W","W",null,null,null,null,"W"],["W","W","W","W","W","W","W","W","W","W","W"],["W","W","W","W","W","W","W","W","W","W","W","W","W","W","W","W","W"]],"timingvisible":false,"tabcounter":17,"stave":4,"totalstaves":5,"instrument":"6guitar","selectedtuning":"Drop D","version":"13"}

Member for

1 year 1 month
Picture
About Me
Im here to upload guitar tabs for my YouTube channel .
Submitted by TinoBear on Thu, 2021-07-15 14:37