Grayera - Summer rain

01234567891011121314151617181920212223
E
B
G
D
A
E
B
0 1 2 3 4 5 6 7 8 9 10 11 12 13 14 15 16 17 18 19 20 21 22 23
(/) Slide Up  (\) Slide Down  (h) Hammer On  (p) Pull Off  (b) Bend (r) Release (v) Vibrato

Capo Fret 2

PART 1 :   IMPORTANT!! TUNE DOWN YOUR TUNER TO 430 kHz. Standart tunning.    REPEAT THE TWO PARTS ONE AFTER ANOTHER

E|--3--------5--7----------------------------------------------------------------
B|-----------------0--3--------5--3----------------------------------------------
G|--------0-----------------0--------0--5-----5/7-----5\4--4---------------------
D|-----0-----------------0-----------------0-------0-------------5--5/7--7/9--5--
A|--3-----------------2-----------------0---------------------5------------------
E|---------------------------------------------------------3---------------------

PART 2 

E|--3--------5--7--------------------------------------------------------------
B|-----------------0--3--------5--3--------------------------------------------
G|--------0-----------------0--------0--5-----5/7-----5\4--4-------------------
D|-----0-----------------0-----------------0-------0-------------5--7/9--7--5--
A|--3-----------------2-----------------0---------------------5----------------
E|---------------------------------------------------------3-------------------

							http://www.guitartabcreator.com
Chords

Instruments
{"strings":[[[3,".",".",5,7,".",".",".",".",".",".",".",".",".",".",".",".",".",".",".",".",".",".",".",".",".",".",".",".",".","."],[".",".",".",".",".",0,3,".",".",5,3,".",".",".",".",".",".",".",".",".",".",".",".",".",".",".",".",".",".",".","."],[".",".",0,".",".",".",".",".",0,".",".",0,5,".",5,"/",7,".",5,"\\",4,4,".",".",".",".",".",".",".",".","."],[".",0,".",".",".",".",".",0,".",".",".",".",".",0,".",".",".",0,".",".",".",".",".",5,5,"/",7,7,"/",9,5],[3,".",".",".",".",".",2,".",".",".",".",".",0,".",".",".",".",".",".",".",".",".",5,".",".",".",".",".",".",".","."],[".",".",".",".",".",".",".",".",".",".",".",".",".",".",".",".",".",".",".",".",".",3,".",".",".",".",".",".",".",".","."]],[[3,".",".",5,7,".",".",".",".",".",".",".",".",".",".",".",".",".",".",".",".",".",".",".",".",".",".",".","."],[".",".",".",".",".",0,3,".",".",5,3,".",".",".",".",".",".",".",".",".",".",".",".",".",".",".",".",".","."],[".",".",0,".",".",".",".",".",0,".",".",0,5,".",5,"/",7,".",5,"\\",4,4,".",".",".",".",".",".","."],[".",0,".",".",".",".",".",0,".",".",".",".",".",0,".",".",".",0,".",".",".",".",".",5,7,"/",9,7,5],[3,".",".",".",".",".",2,".",".",".",".",".",0,".",".",".",".",".",".",".",".",".",5,".",".",".",".",".","."],[".",".",".",".",".",".",".",".",".",".",".",".",".",".",".",".",".",".",".",".",".",3,".",".",".",".",".",".","."]]],"numberofstrings":6,"notes":["E","B","G","D","A","E","B"],"capo":"2","stringnotes":["E4","B3","G3","D3","A2","E2"],"comments":["PART 1 : IMPORTANT!! TUNE DOWN YOUR TUNER TO 430 kHz. Standart tunning. REPEAT THE TWO PARTS ONE AFTER ANOTHER","PART 2 "],"timing":[["W","W","W","W","W","W","W","W","W","W","W","W","W","W","W",null,"W","W","W",null,"W","W","W","W","W",null,"W","W",null,"W"],["W","W","W","W","W","W","W","W","W","W","W","W","W","W","W",null,"W","W","W",null,"W","W","W","W","W",null,"W","W","W"]],"timingvisible":false,"tabcounter":29,"stave":1,"totalstaves":2,"instrument":"6guitar","selectedtuning":"6_standard","version":"13"}

Member for

1 year 1 month
Picture
About Me
Im here to upload guitar tabs for my YouTube channel .
Submitted by TinoBear on Mon, 2021-09-06 14:18