Grayera - Powerlines

01234567891011121314151617181920212223
E
B
G
D
A
E
B
0 1 2 3 4 5 6 7 8 9 10 11 12 13 14 15 16 17 18 19 20 21 22 23
(/) Slide Up  (\) Slide Down  (h) Hammer On  (p) Pull Off  (b) Bend (r) Release (v) Vibrato

PART 1 : You Repeat this to the end of the song.  Those are two parts here with their differences. 

E|-----5-----3--2--------------2-------------------------2-----------------5-----3--2--------------2-------------------------5-----7--------
B|-----------------5--3--5--------5-----3-----5--3-------------5--3--------------------5--3--5--------5-------------3--------------------7--
G|--------2-----------------2--------------2--------2p0-----2--------2--------2-----------------2--------2--2h4--------4--------------------
D|-----0-----------------4--------------0----------------4-----------------0----------------------------------------------------7-----7-----
A|-------------------------------------------------------------------------------------------4--------------2----2--------2--5--------------
E|------------------------------------------------------------------------------------------------------------------------------------------

GUITAR 2: AFTER PLAYING PART 1 (1X), KEEP PLAYING PART 1 (2X) WITH THIS SCALE ON TOP - (2X) FOR EACH REPEAT OF PART 1. PLAY THIS SCALE (4X) TOTAL

E|--10--9------------------------------
B|---------10--7-----------------------
G|----------------9--7--9--7-----7-----
D|-------------------------------------
A|-------------------------------------
E|-------------------------------------

Guitar 3: Then , Play this scale  (2x) while playing PART 1 (1x)

E|--------------------------------------------
B|--10-----10-----10--8-----------------------
G|-----------------------9-----9-----9--7-----
D|--------------------------------------------
A|--------------------------------------------
E|--------------------------------------------

GUITAR 4:  Then , Play this (2x) with (2X) OF PART 1       YOU KEEP PLAYING THIS NON-STOP

E|-----2-----0-----2-----0-----2-----0-----2-----0-----2-----0-----2-----0-----2-----0-----2--------
B|--0-----2-----0-----2-----0-----2-----0-----2-----0-----2-----0-----2-----0-----2-----0-----2--3--
G|--------------------------------------------------------------------------------------------------
D|--------------------------------------------------------------------------------------------------
A|--------------------------------------------------------------------------------------------------
E|--------------------------------------------------------------------------------------------------

NOW REPEAT GUITAR 3  (2X) WITH PART 1 (1X)

E|--
B|--
G|--
D|--
A|--
E|--

AND HERE END WITH  THE SAME : GUITAR 2 (4X) WITH PART 1 (2X)

E|-----------
B|-----------
G|-----------
D|-----------
A|-----------
E|-----------

							http://www.guitartabcreator.com
Chords

Tab Notes
REMINDER !!! YOU MIGHT NEED A LOOP PEDAL FOR THIS TAB. ALSO !!! MOST OF THE GUITAR LAYERS ARE PLAYED ON THE SECOND AND FOURTH SECTION OF PART 1 , FOR MORE DETAILS, CHECK MY VIDEO IN YOUTUBE : TinoBear
Instruments
{"strings":[[["_",5,".",3,2,".",".",".",".",2,".","_",".",".",".",".",".",".",".",2,".",".",".",".","_",5,".",3,2,".",".",".",".",2,".",".",".",".",".",".",".",".",".",5,".",7,".","."],["_",".",".",".",".",5,3,5,".",".",5,"_",3,".",5,3,".",".",".",".",".",5,3,".","_",".",".",".",".",5,3,5,".",".",5,".",".",".",".",".",3,".",".",".",".",".",".",7],["_",".",2,".",".",".",".",".",2,".",".","_",".",2,".",".",2,"p",0,".",2,".",".",2,"_",".",2,".",".",".",".",".",2,".",".",2,2,"h",4,".",".",4,".",".",".",".",".","."],["_",0,".",".",".",".",".",4,".",".",".","_",0,".",".",".",".",".",".",4,".",".",".",".","_",0,".",".",".",".",".",".",".",".",".",".",".",".",".",".",".",".",".",".",7,".",7,"."],["_",".",".",".",".",".",".",".",".",".",".","_",".",".",".",".",".",".",".",".",".",".",".",".","_",".",".",".",".",".",".",4,".",".",".",".",2,".",".",2,".",".",2,5,".",".",".","."],["_",".",".",".",".",".",".",".",".",".",".","_",".",".",".",".",".",".",".",".",".",".",".",".","_",".",".",".",".",".",".",".",".",".",".",".",".",".",".",".",".",".",".",".",".",".",".","."]],[[10,9,".",".",".",".",".",".","_",".","_"],[".",".",10,7,".",".",".",".","_",".","_"],[".",".",".",".",9,7,9,7,"_",7,"_"],[".",".",".",".",".",".",".",".","_",".","_"],[".",".",".",".",".",".",".",".","_",".","_"],[".",".",".",".",".",".",".",".","_",".","_"]],[[".","_",".","_",".",".",".","_",".","_",".",".","_"],[10,"_",10,"_",10,8,".","_",".","_",".",".","_"],[".","_",".","_",".",".",9,"_",9,"_",9,7,"_"],[".","_",".","_",".",".",".","_",".","_",".",".","_"],[".","_",".","_",".",".",".","_",".","_",".",".","_"],[".","_",".","_",".",".",".","_",".","_",".",".","_"]],[[".",2,".",0,".",2,".",0,".",2,".",0,".",2,".",0,".",2,".",0,".",2,".",0,".",2,".",0,".",2,".","."],[0,".",2,".",0,".",2,".",0,".",2,".",0,".",2,".",0,".",2,".",0,".",2,".",0,".",2,".",0,".",2,3],[".",".",".",".",".",".",".",".",".",".",".",".",".",".",".",".",".",".",".",".",".",".",".",".",".",".",".",".",".",".",".","."],[".",".",".",".",".",".",".",".",".",".",".",".",".",".",".",".",".",".",".",".",".",".",".",".",".",".",".",".",".",".",".","."],[".",".",".",".",".",".",".",".",".",".",".",".",".",".",".",".",".",".",".",".",".",".",".",".",".",".",".",".",".",".",".","."],[".",".",".",".",".",".",".",".",".",".",".",".",".",".",".",".",".",".",".",".",".",".",".",".",".",".",".",".",".",".",".","."]],[[],[],[],[],[],[]],[["_","_","_"],["_","_","_"],["_","_","_"],["_","_","_"],["_","_","_"],["_","_","_"]]],"numberofstrings":6,"notes":["E","B","G","D","A","E","B"],"capo":0,"stringnotes":["E4","B3","G3","D3","A2","E2"],"comments":["PART 1 : You Repeat this to the end of the song. Those are two parts here with their differences. ","GUITAR 2: AFTER PLAYING PART 1 (1X), KEEP PLAYING PART 1 (2X) WITH THIS SCALE ON TOP - (2X) FOR EACH REPEAT OF PART 1. PLAY THIS SCALE (4X) TOTAL","Guitar 3: Then , Play this scale (2x) while playing PART 1 (1x)","GUITAR 4: Then , Play this (2x) with (2X) OF PART 1 YOU KEEP PLAYING THIS NON-STOP","NOW REPEAT GUITAR 3 (2X) WITH PART 1 (1X)","AND HERE END WITH THE SAME : GUITAR 2 (4X) WITH PART 1 (2X)"],"timing":[["W","W","W","W","W","W","W","W","W","W","W","W","W","W","W","W","W",null,"W","W","W","W","W","W","W","W","W","W","W","W","W","W","W","W","W","W","W",null,"W","W","W","W","W","W","W","W","W","W"],["W","W","W","W","W","W","W","W","W","W","W"],["W","W","W","W","W","W","W","W","W","W","W","W","W"],["W","W","W","W","W","W","W","W","W","W","W","W","W","W","W","W","W","W","W","W","W","W","W","W","W","W","W","W","W","W","W","W","W","W","W","W","W","W","W","W","W","W","W","W","W","W","W","W","W","W","W"],[],["W","W","W"]],"timingvisible":false,"tabcounter":3,"stave":5,"totalstaves":6,"instrument":"6guitar","selectedtuning":"6_standard","version":"13"}

Member for

1 year 1 month
Picture
About Me
Im here to upload guitar tabs for my YouTube channel .
Submitted by TinoBear on Thu, 2021-05-13 02:01