Dragonmane - Custom Made Curtain

01234567891011121314151617181920212223
E
B
G
D
A
E
B
0 1 2 3 4 5 6 7 8 9 10 11 12 13 14 15 16 17 18 19 20 21 22 23
(/) Slide Up  (\) Slide Down  (h) Hammer On  (p) Pull Off  (b) Bend (r) Release (v) Vibrato

Because im not sure if you will understand it , I tuned it by my app  >>     (G# D# G# C# F# B )    <<  This part playes about 23 times trough the song. 

B |--------------------------------------------------------------------------------------------------
Gb|--------------------------------------------------------------------------------------------------
Db|--------2-----------------------------------------------------------------------------------------
Ab|-----0-----3-----0--3--0-----2--3--2-----2--3-----------3--0-----0--3--0-----2--3--2-----2--3-----
Eb|--0-----------1-----------3-----------3--------3-----0--------1-----------3-----------3--------3--
Ab|--------------------------------------------------0-----------------------------------------------

You play this part 8 times. And on the 9th time it hink it just fades away

B |--------------0-----------------0-----------------0-----------------0--
Gb|-----------------------------------------------------------------------
Db|-----2--------------2-----------------2-----------------2--------------
Ab|-----------3--------------5-----------------3-----------------3--------
Eb|-----5--------------3-----------------1-----------------0--------------
Ab|-----------------------------------------------------------------------

							http://www.guitartabcreator.com
Chords

Instruments
{"strings":[[[".",".",".",".",".",".",".",".",".",".",".",".",".",".",".",".",".",".",".",".",".",".",".",".",".",".",".",".",".",".",".","."],[".",".",".",".",".",".",".",".",".",".",".",".",".",".",".",".",".",".",".",".",".",".",".",".",".",".",".",".",".",".",".","."],[".",".",2,".",".",".",".",".",".",".",".",".",".",".",".",".",".",".",".",".",".",".",".",".",".",".",".",".",".",".",".","."],[".",0,".",3,".",0,3,0,".",2,3,2,".",2,3,".",".",".",3,0,".",0,3,0,".",2,3,2,".",2,3,"."],[0,".",".",".",1,".",".",".",3,".",".",".",3,".",".",3,".",0,".",".",1,".",".",".",3,".",".",".",3,".",".",3],[".",".",".",".",".",".",".",".",".",".",".",".",".",".",".",".",0,".",".",".",".",".",".",".",".",".",".",".",".",".",".","."]],[["_",".","_",".",0,"_",".","_",".","_",0,"_",".","_",".","_",0,"_",".","_",".","_",0],["_",".","_",".",".","_",".","_",".","_",".","_",".","_",".","_",".","_",".","_",".","_","."],["_",2,"_",".",".","_",2,"_",".","_",".","_",2,"_",".","_",".","_",2,"_",".","_","."],["_",".","_",3,".","_",".","_",5,"_",".","_",".","_",3,"_",".","_",".","_",3,"_","."],["_",5,"_",".",".","_",3,"_",".","_",".","_",1,"_",".","_",".","_",0,"_",".","_","."],["_",".","_",".",".","_",".","_",".","_",".","_",".","_",".","_",".","_",".","_",".","_","."]]],"numberofstrings":6,"notes":["B","FsGb","CsDb","GsAb","DsEb","GsAb","B"],"capo":0,"stringnotes":["B3","Gb3","Db3","Ab2","Eb2","Ab1"],"comments":["Because im not sure if you will understand it , I tuned it by my app >> (G# D# G# C# F# B ) << This part playes about 23 times trough the song. ","You play this part 8 times. And on the 9th time it hink it just fades away"],"timing":[["W","W","W","W","W","W","W","W","W","W","W","W","W","W","W","W","W","W","W","W","W","W","W","W","W","W","W","W","W","W","W","W"],["W","W","W","W","W","W","W","W","W","W","W","W","W","W","W","W","W","W","W","W","W","W","W"]],"timingvisible":false,"tabcounter":23,"stave":1,"totalstaves":2,"instrument":"6guitar","selectedtuning":"6_standard","version":"13"}

Member for

1 year 3 months
Picture
About Me
Im here to upload guitar tabs for my YouTube channel .
Submitted by TinoBear on Thu, 2021-12-02 04:26