Bones - TroubledYouth

01234567891011121314151617181920212223
E
B
G
D
A
E
B
0 1 2 3 4 5 6 7 8 9 10 11 12 13 14 15 16 17 18 19 20 21 22 23
(/) Slide Up  (\) Slide Down  (h) Hammer On  (p) Pull Off  (b) Bend (r) Release (v) Vibrato

PART ONE ( INTRO )  PLAY THIS  ( 2 X )

E|-----8-----------------------------------------------------------------------------------------
B|--------------8-----------------9--------------------------------------------------------------
G|-----------------------8-----------------------------------------------------------------------
D|-----------6-----------------------------6-------------6-----------6\5--5--------3h5--6--------
A|--------6-----------6--------6--------6----------6--------------6------------------------3-----
D|--6--------------6--------6--------6--------5/6-----6--------6----------5-----3-------------3--

Play this for the rest of the song 

E|--------8------------------------------------------------------------------------------
B|-----------------8-----------------9---------------------------------------------------
G|--------------------------8------------------------------------------------------------
D|--------------6-----------------------------6-------------6--------6-----5-----3h5--6--
A|-----------6-----------6--------6--------6-------------6-------------------------------
D|--6-----------------6--------6--------6--------5/6--6-----------6-----6-----3----------

							http://www.guitartabcreator.com
Chords

Instruments
{"strings":[[[".",8,".",".",".",".",".",".",".",".",".",".",".",".",".",".",".",".",".",".","_",".",".",".",".",".",".","_",".",".",".",".",".",".","."],[".",".",".",".",8,".",".",".",".",".",9,".",".",".",".",".",".",".",".",".","_",".",".",".",".",".",".","_",".",".",".",".",".",".","."],[".",".",".",".",".",".",".",8,".",".",".",".",".",".",".",".",".",".",".",".","_",".",".",".",".",".",".","_",".",".",".",".",".",".","."],[".",".",".",6,".",".",".",".",".",".",".",".",".",6,".",".",".",".",".",6,"_",".",".",6,"\\",5,5,"_",".",3,"h",5,6,".","."],[".",".",6,".",".",".",6,".",".",6,".",".",6,".",".",".",".",6,".",".","_",".",6,".",".",".",".","_",".",".",".",".",".",3,"."],[6,".",".",".",".",6,".",".",6,".",".",6,".",".",5,"/",6,".",6,".","_",6,".",".",".",".",5,"_",3,".",".",".",".",".",3]],[[".","_",8,".",".",".",".",".",".",".",".",".",".",".",".",".",".",".",".",".",".","_",".",".",".",".",".",".",".",".","."],[".","_",".",".",".",8,".",".",".",".",".",9,".",".",".",".",".",".",".",".",".","_",".",".",".",".",".",".",".",".","."],[".","_",".",".",".",".",".",".",8,".",".",".",".",".",".",".",".",".",".",".",".","_",".",".",".",".",".",".",".",".","."],[".","_",".",".",6,".",".",".",".",".",".",".",".",".",6,".",".",".",".",".",6,"_",".",6,".",5,".",3,"h",5,6],[".","_",".",6,".",".",".",6,".",".",6,".",".",6,".",".",".",".",".",6,".","_",".",".",".",".",".",".",".",".","."],[6,"_",".",".",".",".",6,".",".",6,".",".",6,".",".",5,"/",6,6,".",".","_",6,".",6,".",3,".",".",".","."]]],"numberofstrings":6,"notes":["E","B","G","D","A","D"],"capo":0,"stringnotes":["E3","B2","G2","D2","A1","D1"],"comments":["PART ONE ( INTRO ) PLAY THIS ( 2 X )","Play this for the rest of the song "],"timing":[["W","W","W","W","W","W","W","W","W","W","W","W","W","W","W",null,"W","W","W","W","W","W","W","W",null,"W","W","W","W","W",null,"W","W","W","W"],["W","W","W","W","W","W","W","W","W","W","W","W","W","W","W","W",null,"W","W","W","W","W","W","W","W","W","W","W","W","W","W"]],"timingvisible":false,"tabcounter":31,"stave":1,"totalstaves":2,"instrument":"6guitar","selectedtuning":"Drop D","version":"13"}

Member for

1 year 1 month
Picture
About Me
Im here to upload guitar tabs for my YouTube channel .
Submitted by TinoBear on Tue, 2021-05-18 14:40