Bones - RestInPeace

Chords

01234567891011121314151617181920212223
E
B
G
D
A
E
B
0 1 2 3 4 5 6 7 8 9 10 11 12 13 14 15 16 17 18 19 20 21 22 23
(/) Slide Up  (\) Slide Down  (h) Hammer On  (p) Pull Off  (b) Bend (r) Release (v) Vibrato

Intro :   ( 4 x )

D|-----------------------1--------------
A|--------------------3--------3--------
F|-----------------2--------------------
C|--------------0-----------------------
G|--------------------------------------
C|--0-----------------------------------

part 1 ( 2 x ) 

D|--1--0-----0-----0--1--0-----0-----0--1--0-----0-----0--1--0-----0-----0--
A|--------3-----3-----------3-----3-----------3-----3-----------3-----3-----
F|--------------------------------------------------------------------------
C|--------0-----0-----------0-----0-----------0-----0-----------0-----0-----
G|--------------------------------------1-----------------------------------
C|--0-----------------0-----------------------------------3-----------------

part 2 ( 8 X ) but the first is WITHOUT THE (C) STRING

D|--1--------0--------0--
A|-----3--3-----3--------
F|-----------------------
C|--------0-----0--------
G|-----------------------
C|--0--------------------

part 3 ( 8 x )

D|--1--0-----0-----0--
A|--------3-----3-----
F|--------------------
C|--------0-----0-----
G|--------------------
C|--------------------

part 4  ( 2 x )

D|--1--0-----0-----0--1--0-----0-----0--1--0-----0-----0--1--0-----0-----0--
A|--------3-----3-----------3-----3-----------3-----3-----------3-----3-----
F|--------------------------------------------------------------------------
C|--------0-----0-----------0-----0-----------0-----0-----------0-----0-----
G|--------------------------------------1-----------------------------------
C|--0-----------------0-----------------------------------3-----------------

part 5 ( 12 x )  ending

D|--1--------0-----0--
A|-----3--3-----3-----
F|--------------------
C|--------0-----0-----
G|--------------------
C|--------------------

							http://www.guitartabcreator.com
Instruments
{"strings":[[[".","_","_","_",".",".",".",1,"_",".","_","_"],[".","_","_","_",".",".",3,".","_",3,"_","_"],[".","_","_","_",".",2,".",".","_",".","_","_"],[".","_","_","_",0,".",".",".","_",".","_","_"],[".","_","_","_",".",".",".",".","_",".","_","_"],[0,"_","_","_",".",".",".",".","_",".","_","_"]],[[1,0,".",0,".",0,1,0,".",0,".",0,1,0,".",0,".",0,1,0,".",0,".",0],[".",".",3,".",3,".",".",".",3,".",3,".",".",".",3,".",3,".",".",".",3,".",3,"."],[".",".",".",".",".",".",".",".",".",".",".",".",".",".",".",".",".",".",".",".",".",".",".","."],[".",".",0,".",0,".",".",".",0,".",0,".",".",".",0,".",0,".",".",".",0,".",0,"."],[".",".",".",".",".",".",".",".",".",".",".",".",1,".",".",".",".",".",".",".",".",".",".","."],[0,".",".",".",".",".",0,".",".",".",".",".",".",".",".",".",".",".",3,".",".",".",".","."]],[[1,".",".",0,".",".",0],[".",3,3,".",3,".","."],[".",".",".",".",".",".","."],[".",".",0,".",0,".","."],[".",".",".",".",".",".","."],[0,".",".",".",".",".","."]],[[1,0,".",0,".",0],[".",".",3,".",3,"."],[".",".",".",".",".","."],[".",".",0,".",0,"."],[".",".",".",".",".","."],[".",".",".",".",".","."]],[[1,0,".",0,".",0,1,0,".",0,".",0,1,0,".",0,".",0,1,0,".",0,".",0],[".",".",3,".",3,".",".",".",3,".",3,".",".",".",3,".",3,".",".",".",3,".",3,"."],[".",".",".",".",".",".",".",".",".",".",".",".",".",".",".",".",".",".",".",".",".",".",".","."],[".",".",0,".",0,".",".",".",0,".",0,".",".",".",0,".",0,".",".",".",0,".",0,"."],[".",".",".",".",".",".",".",".",".",".",".",".",1,".",".",".",".",".",".",".",".",".",".","."],[0,".",".",".",".",".",0,".",".",".",".",".",".",".",".",".",".",".",3,".",".",".",".","."]],[[1,".",".",0,".",0],[".",3,3,".",3,"."],[".",".",".",".",".","."],[".",".",0,".",0,"."],[".",".",".",".",".","."],[".",".",".",".",".","."]]],"numberofstrings":6,"notes":["D","A","F","C","G","C"],"capo":0,"stringnotes":["D3","A2","F2","C2","G1","C1"],"comments":["Intro : ( 4 x )","part 1 ( 2 x ) ","part 2 ( 8 X ) but the first is WITHOUT THE (C) STRING","part 3 ( 8 x )","part 4 ( 2 x )","part 5 ( 12 x ) ending"],"timing":[["W",null,null,null,"W","W","W","W",null,"W"],["W","W","W","W","W","W","W","W","W","W","W","W","W","W","W","W","W","W","W","W","W","W","W","W"],["W","W","W","W","W","W"],["W","W","W","W","W","W"],["W","W","W","W","W","W","W","W","W","W","W","W","W","W","W","W","W","W","W","W","W","W","W","W"],["W","W","W","W","W","W"]],"timingvisible":false,"tabcounter":6,"stave":5,"totalstaves":6,"instrument":"6guitar","selectedtuning":"Drop C","version":"13"}

Member for

3 months 1 week
Picture
About Me
Im here to upload guitar tabs for my YouTube channel .
Submitted by TinoBear on Sat, 2020-11-14 05:49