Bones - PullTheSkyDown (intro and base melody)

01234567891011121314151617181920212223
E
B
G
D
A
E
B
0 1 2 3 4 5 6 7 8 9 10 11 12 13 14 15 16 17 18 19 20 21 22 23
(/) Slide Up  (\) Slide Down  (h) Hammer On  (p) Pull Off  (b) Bend (r) Release (v) Vibrato

Those two parts down here  are connected. you repeat them as a base melody trough the whole song. Again i APOLOGISE i couldnt make the whole song ! hope you enjoy

E|--------------------------------------1--------------------------------------------4--------2-----
B|--------------------2--------1--------------1--------------------2--------1-----------------------
G|-----------3--------------------------------------------3-----------------------------------------
D|--------------------------------------------------------------------------------------------------
A|--1-----1--------1--------1--------1-----------1-----1--------1--------1--------1--------1--------
E|--------------------------------------------------------------------------------------------------

continue

E|--------------1--------------------------2-----2--2-----------1--------------------------
B|-----4-----------------1--------2--------------------4-----------------1--------2-----1--
G|-----------------------------------------------------------------------------------------
D|--1--------1--------1--------1--------1--------------------1--------1--------1-----1-----
A|-----------------------------------------------------------------------------------------
E|-----------------------------------------------------------------------------------------

							http://www.guitartabcreator.com
Chords

Instruments
{"strings":[[[".","_",".",".","_",".",".","_",".",".","_",".",1,"_",".",".","_",".",".","_",".",".","_",".",".","_",".",4,"_",".",2,"_"],[".","_",".",".","_",".",2,"_",".",1,"_",".",".","_",1,".","_",".",".","_",".",2,"_",".",1,"_",".",".","_",".",".","_"],[".","_",".",3,"_",".",".","_",".",".","_",".",".","_",".",".","_",".",3,"_",".",".","_",".",".","_",".",".","_",".",".","_"],[".","_",".",".","_",".",".","_",".",".","_",".",".","_",".",".","_",".",".","_",".",".","_",".",".","_",".",".","_",".",".","_"],[1,"_",1,".","_",1,".","_",1,".","_",1,".","_",".",1,"_",1,".","_",1,".","_",1,".","_",1,".","_",1,".","_"],[".","_",".",".","_",".",".","_",".",".","_",".",".","_",".",".","_",".",".","_",".",".","_",".",".","_",".",".","_",".",".","_"]],[[".",".","_",".",1,"_",".",".","_",".",".","_",".",2,"_",2,2,".","_",".",1,"_",".",".","_",".",".",".","."],[".",4,"_",".",".","_",".",1,"_",".",2,"_",".",".","_",".",".",4,"_",".",".","_",".",1,"_",".",2,".",1],[".",".","_",".",".","_",".",".","_",".",".","_",".",".","_",".",".",".","_",".",".","_",".",".","_",".",".",".","."],[1,".","_",1,".","_",1,".","_",1,".","_",1,".","_",".",".",".","_",1,".","_",1,".","_",1,".",1,"."],[".",".","_",".",".","_",".",".","_",".",".","_",".",".","_",".",".",".","_",".",".","_",".",".","_",".",".",".","."],[".",".","_",".",".","_",".",".","_",".",".","_",".",".","_",".",".",".","_",".",".","_",".",".","_",".",".",".","."]]],"numberofstrings":6,"notes":["E","B","G","D","A","E","B"],"capo":0,"stringnotes":["E4","B3","G3","D3","A2","E2"],"comments":["Those two parts down here are connected. you repeat them as a base melody trough the whole song. Again i APOLOGISE i couldnt make the whole song ! hope you enjoy","continue"],"timing":[["W","W","W","W","W","W","W","W","W","W","W","W","W","W","W","W","W","W","W","W","W","W","W","W","W","W","W","W","W","W","W","W"],["W","W","W","W","W","W","W","W","W","W","W","W","W","W","W","W","W","W","W","W","W","W","W","W","W","W","W","W","W"]],"timingvisible":false,"tabcounter":29,"stave":1,"totalstaves":2,"instrument":"6guitar","selectedtuning":"6_standard","version":"13"}

Member for

1 year 3 months
Picture
About Me
Im here to upload guitar tabs for my YouTube channel .
Submitted by TinoBear on Sun, 2021-11-28 14:16