Bones - Numb

Chords

01234567891011121314151617181920212223
E
B
G
D
A
E
B
0 1 2 3 4 5 6 7 8 9 10 11 12 13 14 15 16 17 18 19 20 21 22 23
(/) Slide Up  (\) Slide Down  (h) Hammer On  (p) Pull Off  (b) Bend (r) Release (v) Vibrato

Stave 1: Intro

E|-----------------------------------------------------------------------------------------------------------------x--
B|-----------------------------------------------------------------------------------------------------------------x--
G|-----------6--------------6b6--------------6--------------6b6--------------6--------------6b6--------------6-----6--
D|-----7--------7-----7----------7-----7--------7-----7----------7-----7--------7-----7----------7-----7--------7--7--
A|-----------------------------------------------------------------------------------------------------------------5--
D|--0-----0--------5-----5----------0-----0--------5-----5----------0-----0--------5-----5----------0-----0--------5--

Stave 2: The lyrics start here till the part with " like im wanted... "  you play this part 6 times

E|----------------------------------
B|----------------------------------
G|-----------6--------------6b6-----
D|-----7--------7-----7----------7--
A|----------------------------------
D|--0-----0--------5-----5----------

" Like im wanted.. ..... Like im wanted again "

E|-----x--------x--
B|-----x--------x--
G|-----6--------6--
D|-----7--------7--
A|-----5--------4--
D|-----5--------4--

Stave 4:

E|------------------------------------------------------------------
B|------------------------------------------------------------------
G|-----------6--------------6b6--------------6--------------6b6-----
D|-----7--------7-----7----------7-----7--------7-----7----------7--
A|------------------------------------------------------------------
D|--0-----0--------5-----5----------0-----0--------5-----5----------

"Where were you , were you by yourself ? "     repeat the riff 4x      till " Oh im so insecure ... " 

E|----------------------------------------
B|----------------------------------------
G|-----------6--------------6b6-----------
D|-----7--------7-----7----------7--------
A|----------------------------------------
D|--0-----0--------5-----5----------------

" im so insecure..... Nobody knows it but you . "

E|--x-----------x-------------------------------------------------------
B|--x-----------x-------------------------------------------------------
G|--6-----------6--------------------------------6--------------6b6-----
D|--7-----------7--------------------------7--------7-----7----------7--
A|--5-----------4-------------------------------------------------------
D|--5-----------4-----------------------0-----0--------5-----5----------

'' I wish i was numb..... and didnt have to show you "

E|--x--------------x------------------------------------------------------------------------------------------
B|--x--------------x------------------------------------------------------------------------------------------
G|--6--------------6-----------------------------------6--------------6b6--------------6--------------6b6-----
D|--7--------------7-----------------------------7--------7-----7----------7-----7--------7-----7----------7--
A|--5--------------4------------------------------------------------------------------------------------------
D|--5--------------4--------------------------0-----0--------5-----5----------0-----0--------5-----5----------



"I wish i was numb ...... i wish i was numb .... i wish i was numb ... and didnt have to show you "

E|--x-----------------x-----------x--------------x--------x-----------------x-----------------------
B|--x-----------------x-----------x--------------x--------x-----------------x-----------------------
G|--6-----------------x-----------x--------------x--------6-----------------x-----------------------
D|--7-----------------7-----------7--------------7--------7-----------------7-----------------------
A|--5-----------------4-----------5--------------4--------5-----------------4-----------------------
D|--5-----------------4-----------5--------------4--------5-----------------4-----------------------



You play the rest of the song wich is Bones 's verse , with the basic patern

E|----------------------------------
B|----------------------------------
G|-----------6--------------6b6-----
D|-----7--------7-----7----------7--
A|----------------------------------
D|--0-----0--------5-----5----------

							http://www.guitartabcreator.com
Instruments
{"strings":[[[".",".",".",".",".",".",".",".",".",".",".",".",".",".",".",".",".",".",".",".",".",".",".",".",".",".",".",".",".",".",".",".",".",".",".",".",".",".",".",".",".","x5"],[".",".",".",".",".",".",".",".",".",".",".",".",".",".",".",".",".",".",".",".",".",".",".",".",".",".",".",".",".",".",".",".",".",".",".",".",".",".",".",".",".","x5"],[".",".",".",6,".",".",".",".",6,"b",6,".",".",".",".",6,".",".",".",".",6,"b",6,".",".",".",".",6,".",".",".",".",6,"b",6,".",".",".",".",6,".",6],[".",7,".",".",7,".",7,".",".",".",".",7,".",7,".",".",7,".",7,".",".",".",".",7,".",7,".",".",7,".",7,".",".",".",".",7,".",7,".",".",7,7],[".",".",".",".",".",".",".",".",".",".",".",".",".",".",".",".",".",".",".",".",".",".",".",".",".",".",".",".",".",".",".",".",".",".",".",".",".",".",".",".",".",5],[0,".",0,".",".",5,".",5,".",".",".",".",0,".",0,".",".",5,".",5,".",".",".",".",0,".",0,".",".",5,".",5,".",".",".",".",0,".",0,".",".",5]],[[".",".",".",".",".",".",".",".",".",".",".","."],[".",".",".",".",".",".",".",".",".",".",".","."],[".",".",".",6,".",".",".",".",6,"b",6,"."],[".",7,".",".",7,".",7,".",".",".",".",7],[".",".",".",".",".",".",".",".",".",".",".","."],[0,".",0,".",".",5,".",5,".",".",".","."]],[["_","x5","_","_","x4"],["_","x5","_","_","x4"],["_",6,"_","_",6],["_",7,"_","_",7],["_",5,"_","_",4],["_",5,"_","_",4]],[[".",".",".",".",".",".",".",".",".",".",".",".",".",".",".",".",".",".",".",".",".",".",".","."],[".",".",".",".",".",".",".",".",".",".",".",".",".",".",".",".",".",".",".",".",".",".",".","."],[".",".",".",6,".",".",".",".",6,"b",6,".",".",".",".",6,".",".",".",".",6,"b",6,"."],[".",7,".",".",7,".",7,".",".",".",".",7,".",7,".",".",7,".",7,".",".",".",".",7],[".",".",".",".",".",".",".",".",".",".",".",".",".",".",".",".",".",".",".",".",".",".",".","."],[0,".",0,".",".",5,".",5,".",".",".",".",0,".",0,".",".",5,".",5,".",".",".","."]],[[".",".",".",".",".",".",".",".",".",".",".",".","_","_"],[".",".",".",".",".",".",".",".",".",".",".",".","_","_"],[".",".",".",6,".",".",".",".",6,"b",6,".","_","_"],[".",7,".",".",7,".",7,".",".",".",".",7,"_","_"],[".",".",".",".",".",".",".",".",".",".",".",".","_","_"],[0,".",0,".",".",5,".",5,".",".",".",".","_","_"]],[["x5","_","_","_","x4","_","_","_","_","_","_","_",".",".",".",".",".",".",".",".",".",".",".","."],["x5","_","_","_","x4","_","_","_","_","_","_","_",".",".",".",".",".",".",".",".",".",".",".","."],[6,"_","_","_",6,"_","_","_","_","_","_","_",".",".",".",6,".",".",".",".",6,"b",6,"."],[7,"_","_","_",7,"_","_","_","_","_","_","_",".",7,".",".",7,".",7,".",".",".",".",7],[5,"_","_","_",4,"_","_","_","_","_","_","_",".",".",".",".",".",".",".",".",".",".",".","."],[5,"_","_","_",4,"_","_","_","_","_","_","_",0,".",0,".",".",5,".",5,".",".",".","."]],[["x5","_","_","_","_","x4","_","_","_","_","_","_","_","_",".",".",".",".",".",".",".",".",".",".",".",".",".",".",".",".",".",".",".",".",".",".",".","."],["x5","_","_","_","_","x4","_","_","_","_","_","_","_","_",".",".",".",".",".",".",".",".",".",".",".",".",".",".",".",".",".",".",".",".",".",".",".","."],[6,"_","_","_","_",6,"_","_","_","_","_","_","_","_",".",".",".",6,".",".",".",".",6,"b",6,".",".",".",".",6,".",".",".",".",6,"b",6,"."],[7,"_","_","_","_",7,"_","_","_","_","_","_","_","_",".",7,".",".",7,".",7,".",".",".",".",7,".",7,".",".",7,".",7,".",".",".",".",7],[5,"_","_","_","_",4,"_","_","_","_","_","_","_","_",".",".",".",".",".",".",".",".",".",".",".",".",".",".",".",".",".",".",".",".",".",".",".","."],[5,"_","_","_","_",4,"_","_","_","_","_","_","_","_",0,".",0,".",".",5,".",5,".",".",".",".",0,".",0,".",".",5,".",5,".",".",".","."]],[["x5","_","_","_","_","_","x4","_","_","_","x4","_","_","_","_","x4","_","_","x5","_","_","_","_","_","x4","_","_","_","_","_","_","_"],["x5","_","_","_","_","_","x4","_","_","_","x4","_","_","_","_","x4","_","_","x5","_","_","_","_","_","x4","_","_","_","_","_","_","_"],[6,"_","_","_","_","_","x4","_","_","_","x4","_","_","_","_","x4","_","_",6,"_","_","_","_","_","x4","_","_","_","_","_","_","_"],[7,"_","_","_","_","_",7,"_","_","_",7,"_","_","_","_",7,"_","_",7,"_","_","_","_","_",7,"_","_","_","_","_","_","_"],[5,"_","_","_","_","_",4,"_","_","_",5,"_","_","_","_",4,"_","_",5,"_","_","_","_","_",4,"_","_","_","_","_","_","_"],[5,"_","_","_","_","_",4,"_","_","_",5,"_","_","_","_",4,"_","_",5,"_","_","_","_","_",4,"_","_","_","_","_","_","_"]],[[".",".",".",".",".",".",".",".",".",".",".","."],[".",".",".",".",".",".",".",".",".",".",".","."],[".",".",".",6,".",".",".",".",6,"b",6,"."],[".",7,".",".",7,".",7,".",".",".",".",7],[".",".",".",".",".",".",".",".",".",".",".","."],[0,".",0,".",".",5,".",5,".",".",".","."]]],"numberofstrings":6,"notes":["E","B","G","D","A","D"],"capo":0,"stringnotes":["E3","B2","G2","D2","A1","D1"],"comments":["Stave 1: Intro","Stave 2: The lyrics start here till the part with \" like im wanted... \" you play this part 6 times","\" Like im wanted.. ..... Like im wanted again \"","Stave 4:","\"Where were you , were you by yourself ? \" repeat the riff 4x till \" Oh im so insecure ... \" ","\" im so insecure..... Nobody knows it but you . \"","'' I wish i was numb..... and didnt have to show you \"","\"I wish i was numb ...... i wish i was numb .... i wish i was numb ... and didnt have to show you \"","You play the rest of the song wich is Bones 's verse , with the basic patern"],"timing":[[null,null,null,null,null,null,null,null,null,null,"W","W","W","W","W","W","W","W","W","W","W",null,"W","W","W","W","W","W","W","W","W","W","W",null,"W","W","W","W","W","W","W","W"],["W","W","W","W","W","W","W","W","W",null,"W","W"],["W","W","W","W","W"],["W","W","W","W","W","W","W","W","W",null,"W","W","W","W","W","W","W","W","W","W","W",null,"W","W"],["W","W","W","W","W","W","W","W","W",null,"W","W"],["W",null,null,null,"W",null,null,null,null,null,null,null,"W","W","W","W","W","W","W","W","W",null,"W","W"],["W",null,null,null,null,"W",null,null,null,null,null,null,null,null,"W","W","W","W","W","W","W","W","W",null,"W","W","W","W","W","W","W","W","W","W","W",null,"W","W"],["W",null,null,null,null,null,"W",null,null,null,"W",null,null,null,null,"W","W","W","W","W","W","W",null,null,"W"],["W","W","W","W","W","W","W","W","W",null,"W","W"]],"timingvisible":false,"tabcounter":12,"stave":8,"totalstaves":9,"instrument":"6guitar","selectedtuning":"Drop D","version":"13"}

Member for

1 month 4 weeks
Picture
About Me
Im here to upload guitar tabs for my YouTube channel .
Submitted by TinoBear on Sun, 2020-10-04 03:11