Bones - ICanSeeMyHouseFromHere

01234567891011121314151617181920212223
E
B
G
D
A
E
B
0 1 2 3 4 5 6 7 8 9 10 11 12 13 14 15 16 17 18 19 20 21 22 23
(/) Slide Up  (\) Slide Down  (h) Hammer On  (p) Pull Off  (b) Bend (r) Release (v) Vibrato

Stave 1:

C |--8---------------------8-------------------------8-------------------8---------------------------------------------------------------------------------
G |--------------------------------------------------10------------------------11------------------11-----8-----------10-----11----------------------------
Eb|--------10--9-----------------10--9--------10--9---------10--9---------------------10--9--------------------------------------10-----------9-----10--9--
Bb|------------------------------------------------------------------------------------------------------------------------------0-------------------------
F |--------------------------------------------------------------------------------------------------------------------------------------------------------
Bb|--------------------------------------------------------------------------------------------------------------------------------------------------------

The next two parts here are one progression (second and third stave ) you repeat it . If you have a loop pedal you play them on top of the first part as in the song

C |-----------------------------------------------------------------------------------------------------------------------------------------------------------------
G |-----------------------------------------------------------------------------------------------------------------------------------------------------------------
Eb|-----------------------------------------------------------------------------------------------------------------------------------------------------------------
Bb|-----------------------------------------------------------------------------------------------------------------------------------------------------------------
F |-----------------------------------------------------------------------------------------------------------------------------------------------------------------
Bb|--0--0-----0-----0--------0-----0-----0--0-----0--0--0--0-----0--0--0--------------------------------0--0-----0-----0--0--0-----0--0-----0--0-----0--------------

Stave 3:

C |-----------------------------------------------------------------
G |-----------------------------------------------------------------
Eb|-----------------------------------------------------------------
Bb|-----------------------------------------------------------------
F |-----------------------------------------------------------------
Bb|--0--0-----0--0-----0--0-----------------2b0--0--0--2b0--0--0--2b





Stave 4                                                                                                          there is more scroll to the right  > > > 

C |-------------------------------------------------------------------------------------------------------------------------------------------------------------------------------------
G |-------------------------------------------------------------------------------------------------------------------------------------------------------------------------------------
Eb|-------------------------------------------------------------------------------------------------------------------------------------------------------------------------------------
Bb|-------------------------------------------------------------------------------------------------------------------------------------------------------------------------------------
F |-----------------12--12--12--12--------------------12--12--12--12--------------12--12--------------------13--13--13--13------------------------12--12--12--12----------------12--12--
Bb|--8--8--8--8------------------------8--8--8--8------------------------8--8----------------0--0--0--0------------------------10--10--10--10------------------------10--10-------------

Stave 5:                                                                                                          there is more scroll to the right > > > 

C |----------------------------------------------------------------------------------------------------------------------------------------------------------------------------------
G |----------------------------------------------------------------------------------------------------------------------------------------------------------------------------------
Eb|----------------------------------------------------------------------------------------------------------------------------------------------------------------------------------
Bb|----------------------------------------------------------------------------------------------------------------------------------------------------------------------------------
F |-----------------12--12--12--12--------------------10--10--10--10--------------10--10-----------------13--13--13--13------------------------12--12--12--12----------------12--12--
Bb|--8--8--8--8------------------------8--8--8--8------------------------8--8-------------0--0--0--0------------------------10--10--10--10------------------------10--10-------------

Stave 6:

C |----------------------------------------------------------------------------------------------------------------------------------------------------------------------
G |----------------------------------------------------------------------------------------------------------------------------------------------------------------------
Eb|----------------------------------------------------------------------------------------------------------------------------------------------------------------------
Bb|----------------------------------------------------------------------------------------------------------------------------------------------------------------------
F |--8--8--8--8--8--8--8--8--12--12--12--12--12--12--12--12--12--12--12--12--12--12--12--12--10--10--10--10--10--10--10--10--10--10--10--10--10--10--10--10--13--13--13--
Bb|--------------------------8---8---8---8---8---8---8---8---8---8---8---8---8---8---8---8---8---8---8---8---8---8---8---8---8---8---8---8---8---8---8---8---12--12--12--

Stave 7:

C |----------------------------------------------------------------------------------------------------------------------
G |----------------------------------------------------------------------------------------------------------------------
Eb|----------------------------------------------------------------------------------------------------------------------
Bb|----------------------------------------------------------------------------------------------------------------------
F |--13--13--13--13--13--13--13--13--13--13--13--13--13--12--12--12--12--12--12--12--12--12--12--12--12--12--12--12--12--
Bb|--12--12--12--12--12--12--12--12--12--12--12--12--12--10--10--10--10--10--10--10--10--10--10--10--10--10--10--10--10--

Stave 8:

C |----------------------------------------------------------------------------------------------------------------------------------------------------------------------------------------------
G |----------------------------------------------------------------------------------------------------------------------------------------------------------------------------------------------
Eb|----------------------------------------------------------------------------------------------------------------------------------------------------------------------------------------------
Bb|----------------------------------------------------------------------------------------------------------------------------------------------------------------------------------------------
F |--12--12--12--12--12--12--12--12--12--12--12--12--12--12--12--12--10--10--10--10--10--10--10--10--12--12--12--12--12--12--12--12--13--13--13--13--13--13--13--13--13--
Bb|--8---8---8---8---8---8---8---8---8---8---8---8---8---8---8---8---8---8---8---8---8---8---8---8---8---8---8---8---8---8---8---8---12--12--12--12--12--12--12--12--12--

Stave 9:                                                                                                        there is more scroll to the right >  >  >

C |---------------------------------------------------------------------------------------------------------------------------------------------------------------------------------------
G |---------------------------------------------------------------------------------------------------------------------------------------------------------------------------------------
Eb|---------------------------------------------------------------------------------------------------------------------------------------------------------------------------------------
Bb|---------------------------------------------------------------------------------------------------------------------------------------------------------------------------------------
F |--13--13--13--13--13--13--13--12--12--12--12--12--12--12--12--12--12--12--12--12--12--12--12-------------------------------------------------------------------------------------------
Bb|--12--12--12--12--12--12--12--10--10--10--10--10--10--10--10--10--10--10--10--10--10--10--10--0-----12-----0-----12-----0--0-----12--0-----12--0-----0-----12--12-----0-----12-----12--

Stave 10:

C |-------------------------------------------------------------------------------------------------------------------------------------------------
G |-------------------------------------------------------------------------------------------------------------------------------------------------
Eb|-------------------------------------------------------------------------------------------------------------------------------------------------
Bb|-------------------------------------------------------------------------------------------------------------------------------------------------
F |-------------------------------------------------------------------------------------------------------------------------------------------------
Bb|--0--0--0--0-----0-----0--0-----12-----0-----12-----0-----0-----12--0-----12--0-----0-----12--12-----0-----12-----12-----0--0--0--0-----0-----0--

Stave 11:

C |--------------------------------------------------------------------------------------------------------------------------------------------------------------
G |--------------------------------------------------------------------------------------------------------------------------------------------------------------
Eb|--------------------------------------------------------------------------------------------------------------------------------------------------------------
Bb|--8-----8-----8--8-----8-----8-----8-----8--8-----8-----/12-----12--------10--10--10--10-------------------7-----7-----7--7-----7-----7-----7-----7--7-----7--
F |--8-----8-----8--8-----8-----8-----8-----8--8-----8------12-----12--------10--10--10--10-------------------7-----7-----7--7-----7-----7-----7-----7--7-----7--
Bb|--8-----8-----8--8-----8-----8-----8-----8--8-----8------12-----12--------10--10--10--10--------10-----10--7-----7-----7--7-----7-----7-----7-----7--7-----7--

Stave 12:

C |--------------------------------------------------------------------
G |--------------------------------------------------------------------
Eb|--------------------------------------------------------------------
Bb|-----------------------------------------------------------0--------
F |-----------------------------------------------------------0--------
Bb|--0-----0--------0--0--0--0-----0-----0--0--0-----0--------0--------

							http://www.guitartabcreator.com
Chords

Instruments
{"strings":[[[8,"_",".",".","_","_","_",8,"_",".",".","_","_",".",".",8,"_",".",".","_","_",8,"_",".","_",".",".","_","_",".","_",".","_","_","_",".","_",".",".","_","_","_",".","_",".","."],[".","_",".",".","_","_","_",".","_",".",".","_","_",".",".",10,"_",".",".","_","_",".","_",11,"_",".",".","_","_",11,"_",8,"_","_","_",10,"_",11,".","_","_","_",".","_",".","."],[".","_",10,9,"_","_","_",".","_",10,9,"_","_",10,9,".","_",10,9,"_","_",".","_",".","_",10,9,"_","_",".","_",".","_","_","_",".","_",".",10,"_","_","_",9,"_",10,9],[".","_",".",".","_","_","_",".","_",".",".","_","_",".",".",".","_",".",".","_","_",".","_",".","_",".",".","_","_",".","_",".","_","_","_",".","_",".",0,"_","_","_",".","_",".","."],[".","_",".",".","_","_","_",".","_",".",".","_","_",".",".",".","_",".",".","_","_",".","_",".","_",".",".","_","_",".","_",".","_","_","_",".","_",".",".","_","_","_",".","_",".","."],[".","_",".",".","_","_","_",".","_",".",".","_","_",".",".",".","_",".",".","_","_",".","_",".","_",".",".","_","_",".","_",".","_","_","_",".","_",".",".","_","_","_",".","_",".","."]],[[".",".","_",".","_",".","_","_",".","_",".","_",".",".","_",".",".",".",".","_",".",".",".","_","_","_","_","_","_","_","_","_","_",".",".","_",".","_",".",".",".","_",".",".","_",".",".","_",".","_","_","_","_"],[".",".","_",".","_",".","_","_",".","_",".","_",".",".","_",".",".",".",".","_",".",".",".","_","_","_","_","_","_","_","_","_","_",".",".","_",".","_",".",".",".","_",".",".","_",".",".","_",".","_","_","_","_"],[".",".","_",".","_",".","_","_",".","_",".","_",".",".","_",".",".",".",".","_",".",".",".","_","_","_","_","_","_","_","_","_","_",".",".","_",".","_",".",".",".","_",".",".","_",".",".","_",".","_","_","_","_"],[".",".","_",".","_",".","_","_",".","_",".","_",".",".","_",".",".",".",".","_",".",".",".","_","_","_","_","_","_","_","_","_","_",".",".","_",".","_",".",".",".","_",".",".","_",".",".","_",".","_","_","_","_"],[".",".","_",".","_",".","_","_",".","_",".","_",".",".","_",".",".",".",".","_",".",".",".","_","_","_","_","_","_","_","_","_","_",".",".","_",".","_",".",".",".","_",".",".","_",".",".","_",".","_","_","_","_"],[0,0,"_",0,"_",0,"_","_",0,"_",0,"_",0,0,"_",0,0,0,0,"_",0,0,0,"_","_","_","_","_","_","_","_","_","_",0,0,"_",0,"_",0,0,0,"_",0,0,"_",0,0,"_",0,"_","_","_","_"]],[[".",".","_",".",".","_",".",".","_","_","_","_","_",".",".",".",".",".",".",".",".",".",".",".","."],[".",".","_",".",".","_",".",".","_","_","_","_","_",".",".",".",".",".",".",".",".",".",".",".","."],[".",".","_",".",".","_",".",".","_","_","_","_","_",".",".",".",".",".",".",".",".",".",".",".","."],[".",".","_",".",".","_",".",".","_","_","_","_","_",".",".",".",".",".",".",".",".",".",".",".","."],[".",".","_",".",".","_",".",".","_","_","_","_","_",".",".",".",".",".",".",".",".",".",".",".","."],[0,0,"_",0,0,"_",0,0,"_","_","_","_","_",2,"b",0,0,0,2,"b",0,0,0,2,"b"]],[[".",".",".",".","_",".",".",".",".","_",".",".",".",".","_",".",".",".",".","_",".",".","_",".",".","_",".",".",".",".","_",".",".",".",".","_",".",".",".",".","_",".",".",".",".","_",".",".","_",".","."],[".",".",".",".","_",".",".",".",".","_",".",".",".",".","_",".",".",".",".","_",".",".","_",".",".","_",".",".",".",".","_",".",".",".",".","_",".",".",".",".","_",".",".",".",".","_",".",".","_",".","."],[".",".",".",".","_",".",".",".",".","_",".",".",".",".","_",".",".",".",".","_",".",".","_",".",".","_",".",".",".",".","_",".",".",".",".","_",".",".",".",".","_",".",".",".",".","_",".",".","_",".","."],[".",".",".",".","_",".",".",".",".","_",".",".",".",".","_",".",".",".",".","_",".",".","_",".",".","_",".",".",".",".","_",".",".",".",".","_",".",".",".",".","_",".",".",".",".","_",".",".","_",".","."],[".",".",".",".","_",12,12,12,12,"_",".",".",".",".","_",12,12,12,12,"_",".",".","_",12,12,"_",".",".",".",".","_",13,13,13,13,"_",".",".",".",".","_",12,12,12,12,"_",".",".","_",12,12],[8,8,8,8,"_",".",".",".",".","_",8,8,8,8,"_",".",".",".",".","_",8,8,"_",".",".","_",0,0,0,0,"_",".",".",".",".","_",10,10,10,10,"_",".",".",".",".","_",10,10,"_",".","."]],[[".",".",".",".","_",".",".",".",".","_",".",".",".",".","_",".",".",".",".","_",".",".","_",".",".",".",".",".",".","_",".",".",".",".","_",".",".",".",".","_",".",".",".",".","_",".",".","_",".","."],[".",".",".",".","_",".",".",".",".","_",".",".",".",".","_",".",".",".",".","_",".",".","_",".",".",".",".",".",".","_",".",".",".",".","_",".",".",".",".","_",".",".",".",".","_",".",".","_",".","."],[".",".",".",".","_",".",".",".",".","_",".",".",".",".","_",".",".",".",".","_",".",".","_",".",".",".",".",".",".","_",".",".",".",".","_",".",".",".",".","_",".",".",".",".","_",".",".","_",".","."],[".",".",".",".","_",".",".",".",".","_",".",".",".",".","_",".",".",".",".","_",".",".","_",".",".",".",".",".",".","_",".",".",".",".","_",".",".",".",".","_",".",".",".",".","_",".",".","_",".","."],[".",".",".",".","_",12,12,12,12,"_",".",".",".",".","_",10,10,10,10,"_",".",".","_",10,10,".",".",".",".","_",13,13,13,13,"_",".",".",".",".","_",12,12,12,12,"_",".",".","_",12,12],[8,8,8,8,"_",".",".",".",".","_",8,8,8,8,"_",".",".",".",".","_",8,8,"_",".",".",0,0,0,0,"_",".",".",".",".","_",10,10,10,10,"_",".",".",".",".","_",10,10,"_",".","."]],[[".",".",".",".",".",".",".",".",".",".",".",".",".",".",".",".",".",".",".",".",".",".",".",".",".",".",".",".",".",".",".",".",".",".",".",".",".",".",".",".",".",".","."],[".",".",".",".",".",".",".",".",".",".",".",".",".",".",".",".",".",".",".",".",".",".",".",".",".",".",".",".",".",".",".",".",".",".",".",".",".",".",".",".",".",".","."],[".",".",".",".",".",".",".",".",".",".",".",".",".",".",".",".",".",".",".",".",".",".",".",".",".",".",".",".",".",".",".",".",".",".",".",".",".",".",".",".",".",".","."],[".",".",".",".",".",".",".",".",".",".",".",".",".",".",".",".",".",".",".",".",".",".",".",".",".",".",".",".",".",".",".",".",".",".",".",".",".",".",".",".",".",".","."],[8,8,8,8,8,8,8,8,12,12,12,12,12,12,12,12,12,12,12,12,12,12,12,12,10,10,10,10,10,10,10,10,10,10,10,10,10,10,10,10,13,13,13],[".",".",".",".",".",".",".",".",8,8,8,8,8,8,8,8,8,8,8,8,8,8,8,8,8,8,8,8,8,8,8,8,8,8,8,8,8,8,8,8,12,12,12]],[[".",".",".",".",".",".",".",".",".",".",".",".",".",".",".",".",".",".",".",".",".",".",".",".",".",".",".",".","."],[".",".",".",".",".",".",".",".",".",".",".",".",".",".",".",".",".",".",".",".",".",".",".",".",".",".",".",".","."],[".",".",".",".",".",".",".",".",".",".",".",".",".",".",".",".",".",".",".",".",".",".",".",".",".",".",".",".","."],[".",".",".",".",".",".",".",".",".",".",".",".",".",".",".",".",".",".",".",".",".",".",".",".",".",".",".",".","."],[13,13,13,13,13,13,13,13,13,13,13,13,13,12,12,12,12,12,12,12,12,12,12,12,12,12,12,12,12],[12,12,12,12,12,12,12,12,12,12,12,12,12,10,10,10,10,10,10,10,10,10,10,10,10,10,10,10,10]],[[".",".",".",".",".",".",".",".",".",".",".",".",".",".",".",".",".",".",".",".",".",".",".",".",".",".",".",".",".",".",".",".",".",".",".",".",".",".",".",".",".",".",".",".",".",".","."],[".",".",".",".",".",".",".",".",".",".",".",".",".",".",".",".",".",".",".",".",".",".",".",".",".",".",".",".",".",".",".",".",".",".",".",".",".",".",".",".",".",".",".",".",".",".","."],[".",".",".",".",".",".",".",".",".",".",".",".",".",".",".",".",".",".",".",".",".",".",".",".",".",".",".",".",".",".",".",".",".",".",".",".",".",".",".",".",".",".",".",".",".",".","."],[".",".",".",".",".",".",".",".",".",".",".",".",".",".",".",".",".",".",".",".",".",".",".",".",".",".",".",".",".",".",".",".",".",".",".",".",".",".",".",".",".",".",".",".",".",".","."],[13,13,13,13,13,13,12,12,12,12,12,12,12,12,12,12,12,12,12,12,12,12,10,10,10,10,10,10,10,10,12,12,12,12,12,12,12,12,13,13,13,13,13,13,13,13,13],[12,12,12,12,12,12,8,8,8,8,8,8,8,8,8,8,8,8,8,8,8,8,8,8,8,8,8,8,8,8,8,8,8,8,8,8,8,8,12,12,12,12,12,12,12,12,12]],[[".",".",".",".",".",".",".",".",".",".",".",".",".",".",".",".",".",".",".",".",".",".",".",".","_",".","_",".","_",".","_",".",".","_",".",".","_",".",".","_",".","_",".",".","_",".","_",".","_","."],[".",".",".",".",".",".",".",".",".",".",".",".",".",".",".",".",".",".",".",".",".",".",".",".","_",".","_",".","_",".","_",".",".","_",".",".","_",".",".","_",".","_",".",".","_",".","_",".","_","."],[".",".",".",".",".",".",".",".",".",".",".",".",".",".",".",".",".",".",".",".",".",".",".",".","_",".","_",".","_",".","_",".",".","_",".",".","_",".",".","_",".","_",".",".","_",".","_",".","_","."],[".",".",".",".",".",".",".",".",".",".",".",".",".",".",".",".",".",".",".",".",".",".",".",".","_",".","_",".","_",".","_",".",".","_",".",".","_",".",".","_",".","_",".",".","_",".","_",".","_","."],[13,13,13,13,13,13,13,12,12,12,12,12,12,12,12,12,12,12,12,12,12,12,12,".","_",".","_",".","_",".","_",".",".","_",".",".","_",".",".","_",".","_",".",".","_",".","_",".","_","."],[12,12,12,12,12,12,12,10,10,10,10,10,10,10,10,10,10,10,10,10,10,10,10,0,"_",12,"_",0,"_",12,"_",0,0,"_",12,0,"_",12,0,"_",0,"_",12,12,"_",0,"_",12,"_",12]],[[".",".",".",".","_",".","_",".",".","_",".","_",".","_",".","_",".","_",".","_",".",".","_",".",".","_",".","_",".",".","_",".","_",".","_",".","_",".",".",".",".","_",".","_","."],[".",".",".",".","_",".","_",".",".","_",".","_",".","_",".","_",".","_",".","_",".",".","_",".",".","_",".","_",".",".","_",".","_",".","_",".","_",".",".",".",".","_",".","_","."],[".",".",".",".","_",".","_",".",".","_",".","_",".","_",".","_",".","_",".","_",".",".","_",".",".","_",".","_",".",".","_",".","_",".","_",".","_",".",".",".",".","_",".","_","."],[".",".",".",".","_",".","_",".",".","_",".","_",".","_",".","_",".","_",".","_",".",".","_",".",".","_",".","_",".",".","_",".","_",".","_",".","_",".",".",".",".","_",".","_","."],[".",".",".",".","_",".","_",".",".","_",".","_",".","_",".","_",".","_",".","_",".",".","_",".",".","_",".","_",".",".","_",".","_",".","_",".","_",".",".",".",".","_",".","_","."],[0,0,0,0,"_",0,"_",0,0,"_",12,"_",0,"_",12,"_",0,"_",0,"_",12,0,"_",12,0,"_",0,"_",12,12,"_",0,"_",12,"_",12,"_",0,0,0,0,"_",0,"_",0]],[[".","_",".","_",".",".","_",".","_",".","_",".","_",".",".","_",".","_",".",".","_",".","_","_",".",".",".",".","_","_",".","_",".",".","_",".","_",".",".","_",".","_",".","_",".","_",".",".","_","."],[".","_",".","_",".",".","_",".","_",".","_",".","_",".",".","_",".","_",".",".","_",".","_","_",".",".",".",".","_","_",".","_",".",".","_",".","_",".",".","_",".","_",".","_",".","_",".",".","_","."],[".","_",".","_",".",".","_",".","_",".","_",".","_",".",".","_",".","_",".",".","_",".","_","_",".",".",".",".","_","_",".","_",".",".","_",".","_",".",".","_",".","_",".","_",".","_",".",".","_","."],[8,"_",8,"_",8,8,"_",8,"_",8,"_",8,"_",8,8,"_",8,"_","/",12,"_",12,"_","_",10,10,10,10,"_","_",".","_",".",7,"_",7,"_",7,7,"_",7,"_",7,"_",7,"_",7,7,"_",7],[8,"_",8,"_",8,8,"_",8,"_",8,"_",8,"_",8,8,"_",8,"_",".",12,"_",12,"_","_",10,10,10,10,"_","_",".","_",".",7,"_",7,"_",7,7,"_",7,"_",7,"_",7,"_",7,7,"_",7],[8,"_",8,"_",8,8,"_",8,"_",8,"_",8,"_",8,8,"_",8,"_",".",12,"_",12,"_","_",10,10,10,10,"_","_",10,"_",10,7,"_",7,"_",7,7,"_",7,"_",7,"_",7,"_",7,7,"_",7]],[[".","_",".","_","_",".",".",".",".","_",".","_",".",".",".","_",".","_","_",".","_","_"],[".","_",".","_","_",".",".",".",".","_",".","_",".",".",".","_",".","_","_",".","_","_"],[".","_",".","_","_",".",".",".",".","_",".","_",".",".",".","_",".","_","_",".","_","_"],[".","_",".","_","_",".",".",".",".","_",".","_",".",".",".","_",".","_","_",0,"_","_"],[".","_",".","_","_",".",".",".",".","_",".","_",".",".",".","_",".","_","_",0,"_","_"],[0,"_",0,"_","_",0,0,0,0,"_",0,"_",0,0,0,"_",0,"_","_",0,"_","_"]]],"numberofstrings":6,"notes":["C","G","DsEb","AsBb","F","AsBb"],"capo":0,"stringnotes":["C3","G2","Eb2","Bb1","F1","Bb0"],"comments":["Stave 1:","The next two parts here are one progression (second and third stave ) you repeat it . If you have a loop pedal you play them on top of the first part as in the song","Stave 3:","Stave 4 there is more scroll to the right > > > ","Stave 5: there is more scroll to the right > > > ","Stave 6:","Stave 7:","Stave 8:","Stave 9: there is more scroll to the right > > >","Stave 10:"],"timing":[["W",null,"W","W",null,null,null,"W",null,"W","W",null,null,"W","W","W",null,"W","W",null,null,"W","W","W","W","W","W",null,null,"W",null,"W",null,null,null,"W",null,"W","W",null,null,null,"W",null,"W","W"],["W","W",null,"W","W","W",null,null,"W",null,"W",null,"W","W",null,"W","W","W","W",null,"W","W","W",null,null,null,null,null,null,null,null,null,null,"W","W",null,"W",null,"W","W","W",null,"W","W",null,"W","W",null,"W"],["W","W",null,"W","W","W","W","W",null,null,null,null,null,"W",null,"W","W","W","W","W","W","W","W","W"],["W","W","W","W",null,"W","W","W","W",null,"W","W","W","W",null,"W","W","W","W",null,"W","W",null,"W","W",null,"W","W","W","W",null,"W","W","W","W",null,"W","W","W","W","W","W","W","W","W","W","W","W","W","W","W"],["W","W","W","W",null,"W","W","W","W",null,"W","W","W","W",null,"W","W","W","W",null,"W","W",null,"W","W","W","W","W","W",null,"W","W","W","W",null,"W","W","W","W",null,"W","W","W","W",null,"W","W",null,"W","W"],["W","W","W","W"],["W","W","W","W","W","W","W","W","W","W","W","W","W","W","W","W","W","W","W","W","W","W","W","W","W","W","W","W","W"],[],["W",null,"W",null,"W","W",null,"W",null,"W","W","W",null,"W","W",null,"W",null,null,"W",null,"W",null,null,"W","W","W","W",null,null,"W",null,"W","W",null,"W",null,"W","W",null,"W",null,"W",null,"W",null,"W","W",null,"W","W"],["W",null,"W",null,null,"W","W","W","W",null,"W",null,"W","W","W",null,"W",null,"W","W"]],"timingvisible":false,"tabcounter":22,"stave":11,"totalstaves":12,"instrument":"6guitar","selectedtuning":"Drop A#","version":"13"}

Member for

4 months 1 week
Picture
About Me
Im here to upload guitar tabs for my YouTube channel .
Submitted by TinoBear on Tue, 2021-02-23 13:17