Bones - GoneWithTheWind

01234567891011121314151617181920212223
E
B
G
D
A
E
B
0 1 2 3 4 5 6 7 8 9 10 11 12 13 14 15 16 17 18 19 20 21 22 23
(/) Slide Up  (\) Slide Down  (h) Hammer On  (p) Pull Off  (b) Bend (r) Release (v) Vibrato

Guitar ( 1 )  repeat this part over and over

E|-----------------------------------------------------------------------------------
B|-----------------------------------------------------------------------------------
G|--------4-----2-----4--------4-----2-----4--------4-----7--6-----------4-----7--6--
D|-----4-----4--------------4-----4--------------4-----4--------------4-----4--------
A|-----------------------------------------------------------------------------------
D|--0-----------------------------------------5-----------------5--------------------

Guitar ( 2 ) repeat this in the backround

E|--17----------------------------------------------
B|----------15--17--15--19--15--17--15--19--15--17--
G|------14------------------------------------------
D|--------------------------------------------------
A|--------------------------------------------------
D|--------------------------------------------------

							http://www.guitartabcreator.com
Chords

Instruments
{"strings":[[[".",".",".",".",".","_",".","_",".",".",".",".","_",".",".",".",".",".",".",".",".","_",".",".",".",".","."],[".",".",".",".",".","_",".","_",".",".",".",".","_",".",".",".",".",".",".",".",".","_",".",".",".",".","."],[".",".",4,".",2,"_",4,"_",".",4,".",2,"_",4,".",".",4,".",7,6,".","_",".",4,".",7,6],[".",4,".",4,".","_",".","_",4,".",4,".","_",".",".",4,".",4,".",".",".","_",4,".",4,".","."],[".",".",".",".",".","_",".","_",".",".",".",".","_",".",".",".",".",".",".",".",".","_",".",".",".",".","."],[0,".",".",".",".","_",".","_",".",".",".",".","_",".",5,".",".",".",".",".",5,"_",".",".",".",".","."]],[[17,".",".",".",".",".",".",".",".",".",".","."],[".",".",15,17,15,19,15,17,15,19,15,17],[".",14,".",".",".",".",".",".",".",".",".","."],[".",".",".",".",".",".",".",".",".",".",".","."],[".",".",".",".",".",".",".",".",".",".",".","."],[".",".",".",".",".",".",".",".",".",".",".","."]]],"numberofstrings":6,"notes":["E","B","G","D","A","D"],"capo":0,"stringnotes":["E3","B2","G2","D2","A1","D1"],"comments":["Guitar ( 1 ) repeat this part over and over","Guitar ( 2 ) repeat this in the backround"],"timing":[["W","W","W","W","W","W","W","W","W","W","W","W","W","W","W","W","W","W","W","W","W","W","W","W","W","W","W"],["W","W","W","W","W","W","W","W","W","W","W","W"]],"timingvisible":false,"tabcounter":12,"stave":1,"totalstaves":2,"instrument":"6guitar","selectedtuning":"Drop D","version":"13"}

Member for

1 year 3 months
Picture
About Me
Im here to upload guitar tabs for my YouTube channel .
Submitted by TinoBear on Sun, 2021-12-19 11:45