Bones, DeerGod - FantasyOfLights

01234567891011121314151617181920212223
E
B
G
D
A
E
B
0 1 2 3 4 5 6 7 8 9 10 11 12 13 14 15 16 17 18 19 20 21 22 23
(/) Slide Up  (\) Slide Down  (h) Hammer On  (p) Pull Off  (b) Bend (r) Release (v) Vibrato

Capo Fret 2

PART 1:   PLAY ( 2X )

E|-----------------------------1-----------1-----------------------------------
B|-----------------------------------1-----------------------------------------
G|--------------------------------3-----------------------------------0--------
D|--0--------------0--------------------------0-----------------0--------0-----
A|--------1-----------1-----------------------------1--------------1--------1--
E|--3--------3--------------------------------3--------3-----------------------

PART 2:   PLAY ( 2X ) ,   AND REPEAT THE TAB

E|-------------------------------1-----------1-------------------------------
B|-------------------------------------1-------------------------------------
G|----------------------------------3--------------0--------------3p0--------
D|----------------------------------------------0-----0----------------3--5--
A|-------------6-----5-----------------------------------1-------------------
E|--3/6-----3-----------6-----------------------3-----------1----------------

							http://www.guitartabcreator.com
Chords

genre
Instruments
{"strings":[[[".","_",".",".","_",".",".","_","_",1,".",".","_",1,".","_",".",".","_","_",".",".",".",".","."],[".","_",".",".","_",".",".","_","_",".",".",1,"_",".",".","_",".",".","_","_",".",".",".",".","."],[".","_",".",".","_",".",".","_","_",".",3,".","_",".",".","_",".",".","_","_",".",".",0,".","."],[0,"_",".",".","_",0,".","_","_",".",".",".","_",".",0,"_",".",".","_","_",0,".",".",0,"."],[".","_",1,".","_",".",1,"_","_",".",".",".","_",".",".","_",1,".","_","_",".",1,".",".",1],[3,"_",".",3,"_",".",".","_","_",".",".",".","_",".",3,"_",".",3,"_","_",".",".",".",".","."]],[[".",".",".","_",".",".","_",".",".","_","_",1,".",".","_",1,".",".",".",".",".","_",".",".",".",".","."],[".",".",".","_",".",".","_",".",".","_","_",".",".",1,"_",".",".",".",".",".",".","_",".",".",".",".","."],[".",".",".","_",".",".","_",".",".","_","_",".",3,".","_",".",".",0,".",".",".","_",3,"p",0,".","."],[".",".",".","_",".",".","_",".",".","_","_",".",".",".","_",".",0,".",0,".",".","_",".",".",".",3,5],[".",".",".","_",".",6,"_",5,".","_","_",".",".",".","_",".",".",".",".",1,".","_",".",".",".",".","."],[3,"/",6,"_",3,".","_",".",6,"_","_",".",".",".","_",".",3,".",".",".",1,"_",".",".",".",".","."]]],"numberofstrings":6,"notes":["E","B","G","D","A","E","B"],"capo":"2","stringnotes":["E4","B3","G3","D3","A2","E2"],"comments":["PART 1: PLAY ( 2X )","PART 2: PLAY ( 2X ) , AND REPEAT THE TAB"],"timing":[["W","W","W","W","W","W","W","W","W","W","W","W","W","W","W","W","W","W","W","W","W","W","W","W","W"],["W",null,"W","W","W","W","W","W","W","W","W","W","W","W","W","W","W","W","W","W","W","W","W",null,"W","W","W"]],"timingvisible":false,"tabcounter":27,"stave":1,"totalstaves":2,"instrument":"6guitar","selectedtuning":"6_standard","version":"13"}

Member for

1 year 3 months
Picture
About Me
Im here to upload guitar tabs for my YouTube channel .
Submitted by TinoBear on Sun, 2022-08-07 15:03