Bones - BurnItDown

Chords

01234567891011121314151617181920212223
E
B
G
D
A
E
B
0 1 2 3 4 5 6 7 8 9 10 11 12 13 14 15 16 17 18 19 20 21 22 23
(/) Slide Up  (\) Slide Down  (h) Hammer On  (p) Pull Off  (b) Bend (r) Release (v) Vibrato

3 parts here

E|--------------------------------------------------------------------------------------------------
B|-----------------------------------------------2--------------------------------------------------
G|--------0-----0-----0-----------0-----0-----0-----------0-----0-----0--------0-----0-----0--------
D|-----4-----4-----4-----4-----4-----4-----4-----------4-----4-----4-----4--4-----4-----4-----4-----
A|--------------------------------------------------------------------------------------------------
C|--4-----------------------0-----------------------7-----------------------------------------------

a variation of the last part

E|-----------------------------------------------
B|-----------------------------------------------
G|--------0-----0-----0--------0-----0-----0-----
D|-----------------------------------------------
A|-----9-----9-----9-----9--9-----9-----9-----7--
C|--7--------------------------------------------

							http://www.guitartabcreator.com
Instruments
{"strings":[[[".",".",".",".",".",".",".",".",".",".",".",".",".",".",".",".",".",".",".",".",".",".",".",".",".",".",".",".",".",".",".","_"],[".",".",".",".",".",".",".",".",".",".",".",".",".",".",".",2,".",".",".",".",".",".",".",".",".",".",".",".",".",".",".","_"],[".",".",0,".",0,".",0,".",".",".",0,".",0,".",0,".",".",".",0,".",0,".",0,".",".",0,".",0,".",0,".","_"],[".",4,".",4,".",4,".",4,".",4,".",4,".",4,".",".",".",4,".",4,".",4,".",4,4,".",4,".",4,".",4,"_"],[".",".",".",".",".",".",".",".",".",".",".",".",".",".",".",".",".",".",".",".",".",".",".",".",".",".",".",".",".",".",".","_"],[4,".",".",".",".",".",".",".",0,".",".",".",".",".",".",".",7,".",".",".",".",".",".",".",".",".",".",".",".",".",".","_"]],[[".",".",".",".",".",".",".",".",".",".",".",".",".",".","."],[".",".",".",".",".",".",".",".",".",".",".",".",".",".","."],[".",".",0,".",0,".",0,".",".",0,".",0,".",0,"."],[".",".",".",".",".",".",".",".",".",".",".",".",".",".","."],[".",9,".",9,".",9,".",9,9,".",9,".",9,".",7],[7,".",".",".",".",".",".",".",".",".",".",".",".",".","."]]],"numberofstrings":6,"notes":["E","B","G","D","A","C"],"capo":0,"stringnotes":["E3","B2","G2","D2","A1","C1"],"comments":["3 parts here","a variation of the last part"],"timing":[["W","W","W","W","W","W","W","W","W","W","W","W","W","W","W","W","W","W","W","W","W","W","W","W","W","W","W","W","W","W","W"],["W","W","W","W","W","W","W","W","W","W","W","W","W","W","W"]],"timingvisible":false,"tabcounter":15,"stave":1,"totalstaves":2,"instrument":"6guitar","selectedtuning":"6guitar","version":"13"}

Member for

3 months 1 week
Picture
About Me
Im here to upload guitar tabs for my YouTube channel .
Submitted by TinoBear on Tue, 2020-10-27 12:56