Bones - BringMeToLife

01234567891011121314151617181920212223
E
B
G
D
A
E
B
0 1 2 3 4 5 6 7 8 9 10 11 12 13 14 15 16 17 18 19 20 21 22 23
(/) Slide Up  (\) Slide Down  (h) Hammer On  (p) Pull Off  (b) Bend (r) Release (v) Vibrato

Repeat this to the end of the song .

Eb|--------------------------------------------------
Bb|--------------------------------------------------
Gb|--------------------------------------------------
Db|-----2--------2-----2-----2-----2-----2--------2--
Ab|--0-----2--3--------------------------------------
Eb|-----------------3-----1-----1-----1-----1--0-----

IF YOU HAVE A LOOP PEDAL , HERE ARE SOME IDEAS FOR LAYERS

Eb|-----------------------------------------------
Bb|-----------------------------------------------
Gb|--2-----3--5-----------------------------------
Db|-----------------5-----3-----3-----3-----3--2--
Ab|-----------------------------------------------
Eb|-----------------------------------------------



Eb|---------------
Bb|---------------
Gb|---------------
Db|---------------
Ab|--0h2--3p2--0--
Eb|---------------

							http://www.guitartabcreator.com
Chords

Instruments
{"strings":[[[".",".",".",".",".",".",".",".",".",".",".",".",".",".",".","."],[".",".",".",".",".",".",".",".",".",".",".",".",".",".",".","."],[".",".",".",".",".",".",".",".",".",".",".",".",".",".",".","."],[".",2,".",".",2,".",2,".",2,".",2,".",2,".",".",2],[0,".",2,3,".",".",".",".",".",".",".",".",".",".",".","."],[".",".",".",".",".",3,".",1,".",1,".",1,".",1,0,"."]],[[".","_",".",".","_",".","_",".","_",".","_",".","_",".","."],[".","_",".",".","_",".","_",".","_",".","_",".","_",".","."],[2,"_",3,5,"_",".","_",".","_",".","_",".","_",".","."],[".","_",".",".","_",5,"_",3,"_",3,"_",3,"_",3,2],[".","_",".",".","_",".","_",".","_",".","_",".","_",".","."],[".","_",".",".","_",".","_",".","_",".","_",".","_",".","."]],[[".",".",".",".",".",".","."],[".",".",".",".",".",".","."],[".",".",".",".",".",".","."],[".",".",".",".",".",".","."],[0,"h",2,3,"p",2,0],[".",".",".",".",".",".","."]]],"numberofstrings":6,"notes":["DsEb","AsBb","FsGb","CsDb","GsAb","DsEb"],"capo":0,"stringnotes":["Eb3","Bb2","Gb2","Db2","Ab1","Eb1"],"comments":["Repeat this to the end of the song .","IF YOU HAVE A LOOP PEDAL , HERE ARE SOME IDEAS FOR LAYERS",""],"timing":[["W","W","W","W","W","W","W","W","W","W","W","W","W","W","W","W"],["W","W","W","W","W","W","W","W","W","W","W","W","W","W","W"],["W",null,"W","W",null,"W","W"]],"timingvisible":false,"tabcounter":7,"stave":2,"totalstaves":3,"instrument":"6guitar","selectedtuning":"Half Step Down","version":"13"}

Member for

1 year 1 month
Picture
About Me
Im here to upload guitar tabs for my YouTube channel .
Submitted by TinoBear on Thu, 2021-05-20 11:36