Bones - BombsInTheLunchRoom

01234567891011121314151617181920212223
E
B
G
D
A
E
B
0 1 2 3 4 5 6 7 8 9 10 11 12 13 14 15 16 17 18 19 20 21 22 23
(/) Slide Up  (\) Slide Down  (h) Hammer On  (p) Pull Off  (b) Bend (r) Release (v) Vibrato

Capo Fret 2

THIS IS THE INTRO.  WE COUNT THE FRETS FROM THE CAPO. YOU MIGHT WANNA USE A SOUND EFFECT

E|--------------------------------------------------------------------------------------------------------------
B|-----------------------------------------2-----------------------------------------2--------------------------
G|--------2-----------------------------------------2--------------------------------------------2--------------
D|-----------------------------------2-----------------------------------------2--------------------------------
A|-----4-----0--------------------------0--------4-----0--------------------------0--------------0--------------
E|--2-----------------------------0-----------2-----------------------------0-----------------------------------

PART 1   :REPEAT  ( 8 X )

E|--------------------------------------------
B|-----------------------------------------2--
G|--------2-----------------------------------
D|-----------------------------------2--------
A|-----4-----0--------------------------0-----
E|--2-----------------------------0-----------

PART 2      :PLAY THIS ( 2 X ) TIMES AND THENREPEAT PART 1 (8 X )

E|--------------------------------------------------------------------------
B|-----------------------------------------2--------------------------------
G|--------2--------------------------------------------2--------------------
D|-----------------------------------2--------------------------------------
A|-----4-----0--------------------------0--------------0--------------------
E|--2-----------------------------0-----------------------------------------

							http://www.guitartabcreator.com
Chords

Instruments
{"strings":[[[".",".",".",".","_","_","_","_","_","_",".",".",".",".",".",".",".",".","_","_","_","_","_","_",".",".",".",".","_","_","_",".","_","_","_","_"],[".",".",".",".","_","_","_","_","_","_",".",".",".",2,".",".",".",".","_","_","_","_","_","_",".",".",".",2,"_","_","_",".","_","_","_","_"],[".",".",2,".","_","_","_","_","_","_",".",".",".",".",".",".",2,".","_","_","_","_","_","_",".",".",".",".","_","_","_",2,"_","_","_","_"],[".",".",".",".","_","_","_","_","_","_",".",2,".",".",".",".",".",".","_","_","_","_","_","_",".",2,".",".","_","_","_",".","_","_","_","_"],[".",4,".",0,"_","_","_","_","_","_",".",".",0,".",".",4,".",0,"_","_","_","_","_","_",".",".",0,".","_","_","_",0,"_","_","_","_"],[2,".",".",".","_","_","_","_","_","_",0,".",".",".",2,".",".",".","_","_","_","_","_","_",0,".",".",".","_","_","_",".","_","_","_","_"]],[[".",".",".",".","_","_","_","_","_","_",".",".",".","."],[".",".",".",".","_","_","_","_","_","_",".",".",".",2],[".",".",2,".","_","_","_","_","_","_",".",".",".","."],[".",".",".",".","_","_","_","_","_","_",".",2,".","."],[".",4,".",0,"_","_","_","_","_","_",".",".",0,"."],[2,".",".",".","_","_","_","_","_","_",0,".",".","."]],[[".",".",".",".","_","_","_","_","_","_",".",".",".",".","_","_","_",".","_","_","_","_","_","_"],[".",".",".",".","_","_","_","_","_","_",".",".",".",2,"_","_","_",".","_","_","_","_","_","_"],[".",".",2,".","_","_","_","_","_","_",".",".",".",".","_","_","_",2,"_","_","_","_","_","_"],[".",".",".",".","_","_","_","_","_","_",".",2,".",".","_","_","_",".","_","_","_","_","_","_"],[".",4,".",0,"_","_","_","_","_","_",".",".",0,".","_","_","_",0,"_","_","_","_","_","_"],[2,".",".",".","_","_","_","_","_","_",0,".",".",".","_","_","_",".","_","_","_","_","_","_"]]],"numberofstrings":6,"notes":["E","B","G","D","A","E","B"],"capo":"2","stringnotes":["E4","B3","G3","D3","A2","E2"],"comments":["THIS IS THE INTRO. WE COUNT THE FRETS FROM THE CAPO. YOU MIGHT WANNA USE A SOUND EFFECT","PART 1 :REPEAT ( 8 X )","PART 2 :PLAY THIS ( 2 X ) TIMES AND THENREPEAT PART 1 (8 X )"],"timing":[["W","W","W","W","W","W","W","W","W","W","W","W","W","W","W","W","W","W","W","W","W","W","W","W","W","W","W","W","W","W","W","W","W","W","W","W"],["W","W","W","W","W","W","W","W","W","W","W","W","W","W"],["W","W","W","W","W","W","W","W","W","W","W","W","W","W","W","W","W","W","W","W","W","W","W","W"]],"timingvisible":false,"tabcounter":24,"stave":0,"totalstaves":3,"instrument":"6guitar","selectedtuning":"6_standard","version":"13"}

Member for

1 year 1 month
Picture
About Me
Im here to upload guitar tabs for my YouTube channel .
Submitted by TinoBear on Tue, 2021-04-20 13:17