Bones - BlackDuffleBag

Chords

01234567891011121314151617181920212223
E
B
G
D
A
E
B
0 1 2 3 4 5 6 7 8 9 10 11 12 13 14 15 16 17 18 19 20 21 22 23
(/) Slide Up  (\) Slide Down  (h) Hammer On  (p) Pull Off  (b) Bend (r) Release (v) Vibrato

repeat  ( 2 x )

E|-----------------------------
B|-----------------------------
G|-----------------------------
D|--3--x--x--3--x--x-----3--x--
A|--3--x--x--3--x--x-----3--x--
E|--1--x--x--1--x--x-----1--x--

repeat this part ( 5 x )

E|--------------------------------------------------------------------------------------------------
B|--------------------------------------------------------------------------------------------------
G|--------------------------5--x--x--5--x--x--5--x--2--x--x--2--x--x--2--x--3--x--x--3--x--x--3--x--
D|--3--x--x--3--x--x--3--x--5--x--x--5--x--x--5--x--2--x--x--2--x--x--2--x--3--x--x--3--x--x--3--x--
A|--3--x--x--3--x--x--3--x--3--x--x--3--x--x--3--x--0--x--x--0--x--x--0--x--1--x--x--1--x--x--1--x--
E|--1--x--x--1--x--x--1--x--------------------------------------------------------------------------

repeat this part  ( 2 x )

E|-------------------------------------------------------------------------------------------------------
B|-------------------------------------------------------------------------------------------------------
G|--6--6--6--6--6--6--6--10--10--10--10--10--10--10--10--5--x--x--5--x--x--5--x--6--x--x--6--x--x--6--x--
D|--6--6--6--6--6--6--6--10--10--10--10--10--10--10--10--6--x--x--6--x--x--6--x--7--x--x--7--x--x--7--x--
A|--4--4--4--4--4--4--4--8---8---8---8---8---8---8---8---6--x--x--6--x--x--6--x--7--x--x--7--x--x--7--x--
E|-------------------------------------------------------4--x--x--4--x--x--4--x--5--x--x--5--x--x--5--x--

repeat this part ( 5 x ) and end

E|-----------------------------------------------
B|--------------------------1--1--1--1-----------
G|--2--2--2--2--2--2--2--2--2--2--2--2--3--3--x--
D|--3--3--3--3--3--3--3--3--2--2--2--2--3--3--x--
A|--3--3--3--3--3--3--3--3--0--0--0--0--1--1--x--
E|--1--1--1--1--1--1--1--1-----------------------

							http://www.guitartabcreator.com
Instruments
{"strings":[[[".",".",".",".",".",".",".",".","."],[".",".",".",".",".",".",".",".","."],[".",".",".",".",".",".",".",".","."],[3,"x3","x3",3,"x3","x3",".",3,"x3"],[3,"x3","x3",3,"x3","x3",".",3,"x3"],[1,"x1","x1",1,"x1","x1",".",1,"x1"]],[[".",".",".",".",".",".",".",".",".",".",".",".",".",".",".",".",".",".",".",".",".",".",".",".",".",".",".",".",".",".",".","."],[".",".",".",".",".",".",".",".",".",".",".",".",".",".",".",".",".",".",".",".",".",".",".",".",".",".",".",".",".",".",".","."],[".",".",".",".",".",".",".",".",5,"x5","x5",5,"x5","x5",5,"x2",2,"x2","x2",2,"x2","x2",2,"x2",3,"x3","x3",3,"x3","x3",3,"x3"],[3,"x3","x3",3,"x3","x3",3,"x3",5,"x5","x5",5,"x5","x5",5,"x2",2,"x2","x2",2,"x2","x2",2,"x2",3,"x3","x3",3,"x3","x3",3,"x3"],[3,"x3","x3",3,"x3","x3",3,"x3",3,"x3","x3",3,"x3","x3",3,"x0",0,"x0","x0",0,"x0","x0",0,"x0",1,"x1","x1",1,"x1","x1",1,"x1"],[1,"x1","x1",1,"x1","x1",1,"x1",".",".",".",".",".",".",".",".",".",".",".",".",".",".",".",".",".",".",".",".",".",".",".","."]],[[".",".",".",".",".",".",".",".",".",".",".",".",".",".",".",".",".",".",".",".",".",".",".",".",".",".",".",".",".",".","."],[".",".",".",".",".",".",".",".",".",".",".",".",".",".",".",".",".",".",".",".",".",".",".",".",".",".",".",".",".",".","."],[6,6,6,6,6,6,6,10,10,10,10,10,10,10,10,5,"x5","x5",5,"x5","x5",5,"x5",6,"x6","x6",6,"x6","x6",6,"x6"],[6,6,6,6,6,6,6,10,10,10,10,10,10,10,10,6,"x6","x6",6,"x6","x6",6,"x6",7,"x7","x7",7,"x7","x7",7,"x7"],[4,4,4,4,4,4,4,8,8,8,8,8,8,8,8,6,"x6","x6",6,"x6","x6",6,"x6",7,"x7","x7",7,"x7","x7",7,"x7"],[".",".",".",".",".",".",".",".",".",".",".",".",".",".",".",4,"x4","x4",4,"x4","x4",4,"x4",5,"x5","x5",5,"x5","x5",5,"x5"]],[[".",".",".",".",".",".",".",".",".",".",".",".",".",".","."],[".",".",".",".",".",".",".",".",1,1,1,1,".",".","."],[2,2,2,2,2,2,2,2,2,2,2,2,3,3,"x3"],[3,3,3,3,3,3,3,3,2,2,2,2,3,3,"x3"],[3,3,3,3,3,3,3,3,0,0,0,0,1,1,"x1"],[1,1,1,1,1,1,1,1,".",".",".",".",".",".","."]]],"numberofstrings":6,"notes":["E","B","G","D","A","E","B"],"capo":0,"stringnotes":["E4","B3","G3","D3","A2","E2"],"comments":["repeat ( 2 x )","repeat this part ( 5 x )","repeat this part ( 2 x )","repeat this part ( 5 x ) and end"],"timing":[["W","W","W","W","W","W","W","W",null,"W"],["W","W","W","W","W","W","W","W","W","W","W","W","W","W","W","W","W","W","W","W","W","W","W","W","W","W","W","W","W","W","W","W"],["W","W","W","W","W","W","W","W","W","W","W","W","W","W","W","W","W","W","W","W","W","W","W","W","W","W","W","W","W","W","W"],["W","W","W","W","W","W","W","W","W","W","W","W","W","W","W"]],"timingvisible":false,"tabcounter":15,"stave":3,"totalstaves":4,"instrument":"6guitar","selectedtuning":"6_standard","version":"13"}

Member for

1 month 4 weeks
Picture
About Me
Im here to upload guitar tabs for my YouTube channel .
Submitted by TinoBear on Fri, 2020-11-20 15:17