Bones / Andy Irvine - AsiRovedOut

Chords

01234567891011121314151617181920212223
E
B
G
D
A
E
B
0 1 2 3 4 5 6 7 8 9 10 11 12 13 14 15 16 17 18 19 20 21 22 23
(/) Slide Up  (\) Slide Down  (h) Hammer On  (p) Pull Off  (b) Bend (r) Release (v) Vibrato

PART 1    

E|----------------------------------------------------0-----------0-----------0-------------------------------------------------------2--------------
B|--------------2----------------------------------------------0-----------0--------4--2--------4--2-------------------------------2-----2--------2--
G|-----------2-------------------------2-----2--1--2-----------------------------------------2--------4-------------1--4--------4-----------1--4-----
D|-----2--4--------4/6--4--2-----1--2-----4--------------4--2--------2--------2--2--------2--------------6\4--2--4-----------4-----------------------
A|--4-------------------------4-----------------------------------------2--------------0----------------------------------2-----------------------0--
E|---------------------------------------------------------------------------------------------------------------------------------------------------



E|---------------------------------------------------------------------------------------------------------------------------2-----------------------
B|--------4--2-------------------2-----------2--------------------2--------2--------4--2----------------------------------2-----2-----------------2--
G|-----2--------4-------------2-----------2-----------2--1--2--------1--4--------2--------4----------------4-----------4-----------4-----------4-----
D|--2--------------6\4--2--4--------6--4--------2--------------4--------------2--------------6\4--2-----4-----2-----4-----------------4-----4--------
A|-------------------------------------------------4-----------------------0-------------------------2-----------2-----------------------2-----------
E|---------------------------------------------------------------------------------------------------------------------------------------------------



E|--2-----
B|-----2--
G|--------
D|--------
A|--------
E|--------

PART 2

E|----------------------------------------------------0-----------0-----------0----------------------------------------------------------2--------------
B|--------------2----------------------------------------------0-----------0--------4--2--------4--2----------------------------------2-----2-----------
G|-----------2-------------------------2-----2--1--2-----------------4-----------------------2--------4-------------2--1--2--------4-----------1--2-----
D|-----2--4--------4/6--4--2-----1--2-----4--------------4--2-----------------2--2--------2--------------6\4--2--4--------------4-----------------------
A|--4-------------------------4-----------------------------------------2--------------0-------------------------------------2--------------------------
E|------------------------------------------------------------------------------------------------------------------------------------------------------



E|------------------------------------------------------------------------------------------------------------------------------2--------------------
B|--2--------4--2--------4--2-------------------2-----------2--------------------2--------2--------4--2----------------------2-----2-----------------
G|--------2-----------2--------4-------------2-----------2-----------2--1--2--------1--4--------2--------4----------------4-----------4-----------4--
D|-----2-----------2--------------6\4--2--4--------6--4--------2--------------4--------------2--------------6\4--2-----4-----------------4-----4-----
A|--0-----------0-------------------------------------------------4-----------------------0-------------------------2-----------------------2--------
E|---------------------------------------------------------------------------------------------------------------------------------------------------



E|-----2-----
B|--2-----2--
G|-----------
D|-----------
A|-----------
E|-----------

PART 3

E|------------------------------------------------------------------0-----------0-----------0----------------------------------------------------
B|--------------2-------------2----------------------------------------------0-----------0--------4--2--------4--2----------------2--------------
G|-----------2-------------2-------------------------2-----2--1--2-----------------------------2-----------2--------4----------------1--4--------
D|-----2--4--------4/6--4--------4/6--4--2-----1--2-----4--------------4--2--------2--------------------2--------------6\4--2--4--------------4--
A|--4---------------------------------------4-----------------------------------------2-----2--------0-------------------------------------2-----
E|-----------------------------------------------------------------------------------------------------------------------------------------------



E|--------2---------------------------------------------------------------------------------------------------------------------------------------2--
B|-----2-----2--------2--------4--2--------4--2-------------------2-----------2--------------------2--------2--------4--2----------------------2-----
G|--4-----------1--4--------2-----------2--------4-------------2-----------2-----------2--1--2--------1--4--------2--------4----------------4--------
D|-----------------------2-----------2--------------6\4--2--4--------6--4--------2--------------4--------------2--------------6\4--2-----4-----------
A|--------------------0-----------0-------------------------------------------------4-----------------------0-------------------------2--------------
E|---------------------------------------------------------------------------------------------------------------------------------------------------



E|-----------------------2-----------2--
B|--2-----------------2-----2-----2-----
G|-----4-----------4-----------4--------
D|--------4-----4-----------------------
A|-----------2--------------------------
E|--------------------------------------

							http://www.guitartabcreator.com
Tab Notes
standart tunning.
Instruments
{"strings":[[[".",".",".",".",".",".",".",".",".",".",".",".",".",".",".",".",".",".",0,".",".",".",0,".",".",".",0,".",".",".",".",".",".",".",".",".",".",".",".",".",".",".",".",".",".",".",2,".",".",".","."],[".",".",".",".",2,".",".",".",".",".",".",".",".",".",".",".",".",".",".",".",".",0,".",".",".",0,".",".",4,2,".",".",4,2,".",".",".",".",".",".",".",".",".",".",".",2,".",2,".",".",2],[".",".",".",2,".",".",".",".",".",".",".",".",".",2,".",2,1,2,".",".",".",".",".",".",".",".",".",".",".",".",".",2,".",".",4,".",".",".",".",".",1,4,".",".",4,".",".",".",1,4,"."],[".",2,4,".",".",4,"/",6,4,2,".",1,2,".",4,".",".",".",".",4,2,".",".",2,".",".",2,2,".",".",2,".",".",".",".",6,"\\",4,2,4,".",".",".",4,".",".",".",".",".",".","."],[4,".",".",".",".",".",".",".",".",".",4,".",".",".",".",".",".",".",".",".",".",".",".",".",2,".",".",".",".",0,".",".",".",".",".",".",".",".",".",".",".",".",2,".",".",".",".",".",".",".",0],[".",".",".",".",".",".",".",".",".",".",".",".",".",".",".",".",".",".",".",".",".",".",".",".",".",".",".",".",".",".",".",".",".",".",".",".",".",".",".",".",".",".",".",".",".",".",".",".",".",".","."]],[[".",".",".",".",".",".",".",".",".",".",".",".",".",".",".",".",".",".",".",".",".",".",".",".",".",".",".",".",".",".",".",".",".",".",".",".",".",".",".",".",".",".",".",2,".",".",".",".",".",".","."],[".",".",4,2,".",".",".",".",".",".",".",2,".",".",".",2,".",".",".",".",".",".",2,".",".",2,".",".",4,2,".",".",".",".",".",".",".",".",".",".",".",".",2,".",2,".",".",".",".",".",2],[".",2,".",".",4,".",".",".",".",".",2,".",".",".",2,".",".",".",2,1,2,".",".",1,4,".",".",2,".",".",4,".",".",".",".",".",".",4,".",".",".",4,".",".",".",4,".",".",".",4,"."],[2,".",".",".",".",6,"\\",4,2,4,".",".",6,4,".",".",2,".",".",".",".",4,".",".",".",".",2,".",".",".",".",6,"\\",4,2,".",4,".",2,".",4,".",".",".",".",".",4,".",4,".","."],[".",".",".",".",".",".",".",".",".",".",".",".",".",".",".",".",".",4,".",".",".",".",".",".",".",0,".",".",".",".",".",".",".",".",".",2,".",".",".",2,".",".",".",".",".",".",".",2,".",".","."],[".",".",".",".",".",".",".",".",".",".",".",".",".",".",".",".",".",".",".",".",".",".",".",".",".",".",".",".",".",".",".",".",".",".",".",".",".",".",".",".",".",".",".",".",".",".",".",".",".",".","."]],[[2,"."],[".",2],[".","."],[".","."],[".","."],[".","."]],[[".",".",".",".",".",".",".",".",".",".",".",".",".",".",".",".",".",".",0,".",".",".",0,".",".",".",0,".",".",".",".",".",".",".",".",".",".",".",".",".",".",".",".",".",".",".",".",2,".",".",".","."],[".",".",".",".",2,".",".",".",".",".",".",".",".",".",".",".",".",".",".",".",".",0,".",".",".",0,".",".",4,2,".",".",4,2,".",".",".",".",".",".",".",".",".",".",".",".",2,".",2,".",".","."],[".",".",".",2,".",".",".",".",".",".",".",".",".",2,".",2,1,2,".",".",".",".",".",4,".",".",".",".",".",".",".",2,".",".",4,".",".",".",".",".",2,1,2,".",".",4,".",".",".",1,2,"."],[".",2,4,".",".",4,"/",6,4,2,".",1,2,".",4,".",".",".",".",4,2,".",".",".",".",".",2,2,".",".",2,".",".",".",".",6,"\\",4,2,4,".",".",".",".",4,".",".",".",".",".",".","."],[4,".",".",".",".",".",".",".",".",".",4,".",".",".",".",".",".",".",".",".",".",".",".",".",2,".",".",".",".",0,".",".",".",".",".",".",".",".",".",".",".",".",".",2,".",".",".",".",".",".",".","."],[".",".",".",".",".",".",".",".",".",".",".",".",".",".",".",".",".",".",".",".",".",".",".",".",".",".",".",".",".",".",".",".",".",".",".",".",".",".",".",".",".",".",".",".",".",".",".",".",".",".",".","."]],[[".",".",".",".",".",".",".",".",".",".",".",".",".",".",".",".",".",".",".",".",".",".",".",".",".",".",".",".",".",".",".",".",".",".",".",".",".",".",".",".",".",".",".",".",2,".",".",".",".",".","."],[2,".",".",4,2,".",".",4,2,".",".",".",".",".",".",".",2,".",".",".",2,".",".",".",".",".",".",2,".",".",2,".",".",4,2,".",".",".",".",".",".",".",".",2,".",2,".",".",".",".","."],[".",".",2,".",".",".",2,".",".",4,".",".",".",".",".",2,".",".",".",2,".",".",".",2,1,2,".",".",1,4,".",".",2,".",".",4,".",".",".",".",".",".",4,".",".",".",4,".",".",".",4],[".",2,".",".",".",2,".",".",".",".",6,"\\",4,2,4,".",".",6,4,".",".",2,".",".",".",".",4,".",".",".",".",2,".",".",".",".",6,"\\",4,2,".",4,".",".",".",".",".",4,".",4,"."],[0,".",".",".",0,".",".",".",".",".",".",".",".",".",".",".",".",".",".",".",".",".",4,".",".",".",".",".",".",".",0,".",".",".",".",".",".",".",".",".",2,".",".",".",".",".",".",".",2,".","."],[".",".",".",".",".",".",".",".",".",".",".",".",".",".",".",".",".",".",".",".",".",".",".",".",".",".",".",".",".",".",".",".",".",".",".",".",".",".",".",".",".",".",".",".",".",".",".",".",".",".","."]],[[".",2,"."],[2,".",2],[".",".","."],[".",".","."],[".",".","."],[".",".","."]],[[".",".",".",".",".",".",".",".",".",".",".",".",".",".",".",".",".",".",".",".",".",".",".",".",0,".",".",".",0,".",".",".",0,".",".",".",".",".",".",".",".",".",".",".",".",".",".",".",".",".","."],[".",".",".",".",2,".",".",".",".",".",2,".",".",".",".",".",".",".",".",".",".",".",".",".",".",".",".",0,".",".",".",0,".",".",4,2,".",".",4,2,".",".",".",".",".",".",2,".",".",".","."],[".",".",".",2,".",".",".",".",".",2,".",".",".",".",".",".",".",".",".",2,".",2,1,2,".",".",".",".",".",".",".",".",".",2,".",".",".",2,".",".",4,".",".",".",".",".",".",1,4,".","."],[".",2,4,".",".",4,"/",6,4,".",".",4,"/",6,4,2,".",1,2,".",4,".",".",".",".",4,2,".",".",2,".",".",".",".",".",".",2,".",".",".",".",6,"\\",4,2,4,".",".",".",".",4],[4,".",".",".",".",".",".",".",".",".",".",".",".",".",".",".",4,".",".",".",".",".",".",".",".",".",".",".",".",".",2,".",2,".",".",0,".",".",".",".",".",".",".",".",".",".",".",".",".",2,"."],[".",".",".",".",".",".",".",".",".",".",".",".",".",".",".",".",".",".",".",".",".",".",".",".",".",".",".",".",".",".",".",".",".",".",".",".",".",".",".",".",".",".",".",".",".",".",".",".",".",".","."]],[[".",".",2,".",".",".",".",".",".",".",".",".",".",".",".",".",".",".",".",".",".",".",".",".",".",".",".",".",".",".",".",".",".",".",".",".",".",".",".",".",".",".",".",".",".",".",".",".",".",".",2],[".",2,".",2,".",".",2,".",".",4,2,".",".",4,2,".",".",".",".",".",".",".",2,".",".",".",2,".",".",".",".",".",".",2,".",".",2,".",".",4,2,".",".",".",".",".",".",".",".",2,"."],[4,".",".",".",1,4,".",".",2,".",".",".",2,".",".",4,".",".",".",".",".",2,".",".",".",2,".",".",".",2,1,2,".",".",1,4,".",".",2,".",".",4,".",".",".",".",".",".",4,".","."],[".",".",".",".",".",".",".",2,".",".",".",2,".",".",".",".",6,"\\",4,2,4,".",".",6,4,".",".",2,".",".",".",".",4,".",".",".",".",2,".",".",".",".",6,"\\",4,2,".",4,".",".","."],[".",".",".",".",".",".",0,".",".",".",0,".",".",".",".",".",".",".",".",".",".",".",".",".",".",".",".",".",4,".",".",".",".",".",".",".",0,".",".",".",".",".",".",".",".",".",2,".",".",".","."],[".",".",".",".",".",".",".",".",".",".",".",".",".",".",".",".",".",".",".",".",".",".",".",".",".",".",".",".",".",".",".",".",".",".",".",".",".",".",".",".",".",".",".",".",".",".",".",".",".",".","."]],[[".",".",".",".",".",".",".",2,".",".",".",2],[2,".",".",".",".",".",2,".",2,".",2,"."],[".",4,".",".",".",4,".",".",".",4,".","."],[".",".",4,".",4,".",".",".",".",".",".","."],[".",".",".",2,".",".",".",".",".",".",".","."],[".",".",".",".",".",".",".",".",".",".",".","."]]],"numberofstrings":6,"notes":["E","B","G","D","A","E","B"],"capo":0,"stringnotes":["E4","B3","G3","D3","A2","E2"],"comments":["PART 1 ","","","PART 2","","","PART 3","",""],"timing":[["W","W","W","W","W","W",null,"W","W","W","W","W","W","W","W","W","W","W","W","W","W","W","W","W","W","W","W","W","W","W","W","W","W","W","W","W",null,"W","W","W","W","W","W","W","W","W","W","W","W","W","W"],["W","W","W","W","W","W",null,"W","W","W","W","W","W","W","W","W","W","W","W","W","W","W","W","W","W","W","W","W","W","W","W","W",null,"W","W","W","W","W","W","W","W","W","W","W","W","W","W","W","W","W","W"],["W","W"],["W","W","W","W","W","W",null,"W","W","W","W","W","W","W","W","W","W","W","W","W","W","W","W","W","W","W","W","W","W","W","W","W","W","W","W","W",null,"W","W","W","W","W","W","W","W","W","W","W","W","W","W"],["W","W","W","W","W","W","W","W","W","W","W",null,"W","W","W","W","W","W","W","W","W","W","W","W","W","W","W","W","W","W","W","W","W","W","W","W","W",null,"W","W","W","W","W","W","W","W","W","W","W","W","W"],["W","W","W"],["W","W","W","W","W","W",null,"W","W","W","W","W",null,"W","W","W","W","W","W","W","W","W","W","W","W","W","W","W","W","W","W","W","W","W","W","W","W","W","W","W","W","W",null,"W","W","W","W","W","W","W","W"],["W","W","W","W","W","W","W","W","W","W","W","W","W","W","W","W","W",null,"W","W","W","W","W","W","W","W","W","W","W","W","W","W","W","W","W","W","W","W","W","W","W","W","W",null,"W","W","W","W","W","W","W"],["W","W","W","W","W","W","W","W","W","W","W","W"]],"timingvisible":false,"tabcounter":12,"stave":7,"totalstaves":9,"instrument":"6guitar","selectedtuning":"6_standard","version":"13"}

Member for

1 month 4 weeks
Picture
About Me
Im here to upload guitar tabs for my YouTube channel .
Submitted by TinoBear on Mon, 2020-10-26 15:19