Sound will begin in 5 seconds

Wait Until Tomorrow

01234567891011121314151617181920212223
E
B
G
D
A
E
B
0 1 2 3 4 5 6 7 8 9 10 11 12 13 14 15 16 17 18 19 20 21 22 23
Song Science #1: How Pros Use 6 Chords to Write Hit Songs
(/) Slide Up  (\) Slide Down  (h) Hammer On  (p) Pull Off  (b) Bend (r) Release (v) Vibrato

Stave 1:

E|-----------------------------------------------------------------12----------------12----------------
B|-------------------------------12--------------------------15b17----15p12----12h15----15p12----------
G|-12b14-12b14-12b14----14p12-14----14-12-14-12-14-14v-12-------------------14----------------15\14-12-
D|-----------------------------------------------------------------------------------------------------
A|-----------------------------------------------------------------------------------------------------
E|-----------------------------------------------------------------------------------------------------

Stave 2:

E|--------------------------------------------------------------------------------------------------
B|-15p12--------------------------------------------------------------------------------------------
G|-------15\14-12----12b14-12v-------------------------14v-12v-14-14-12v----------------------------
D|----------------14-----------12h14p12----------------------------------14p12-14p12----------------
A|--------------------------------------14-12h13p12----------------------------------14p13p12-------
E|--------------------------------------------------15----------------------------------------15-12-

Stave 3:

E|-----------------------
B|-----------------------
G|-14-14-12v-------------
D|-----------14p12-14p12-
A|-----------------------
E|-----------------------

http://www.guitartabcreator.com
Guitar Tab Creator is intended to store guitar tab created through the tool. It currently does not support in-line text editing. Any text you place in here will be lost. If you need to comment on your tab, please use the "Tab Notes" section located below.