Sound will begin in 5 seconds

Yr 11 Song

01234567891011121314151617181920212223
E
B
G
D
A
E
B
0 1 2 3 4 5 6 7 8 9 10 11 12 13 14 15 16 17 18 19 20 21 22 23
Song Science #1: How Pros Use 6 Chords to Write Hit Songs
(/) Slide Up  (\) Slide Down  (h) Hammer On  (p) Pull Off  (b) Bend (r) Release (v) Vibrato

Stave 1:

E|------------------------------------------------------------------------------------------------------
B|------------------------------------------------------------------------------------------------------
G|------------------------------------------------------------------------------------------------------
D|------------------------------------------------------------------------------------------------------
A|------8------8------8------8-----7-----7-----7-----7-----5-----5-----5-----5-----7-----7-----7-----7--
E|--10-----10-----10-----10-----8-----8-----8-----8-----6-----6-----6-----6-----8-----8-----8-----8-----

Stave 2:

E|---------------------------------
B|---------------------------------
G|---------------------------------
D|---------------------------------
A|---------------------------------
E|-----6--10--8--6--10--8--13--12--

Stave 3:

E|---------------------------------------------------------------------------------------------------------------
B|---------------------------------------------------------------------------------------------------------------
G|---------------------------------------------------------------------------------------------------------------
D|---------------------------------------------------------------------------------------------------------------
A|------8------8------8-----7-----5-----5-----5-----5------12------12------12------12-----7-----7-----7----------
E|--10-----10-----10-----8-----6-----6-----6-----6-----13------13------13------13------8-----8-----8-----13--12--

Stave 4:

E|------------------------------------------------------------------------------------------------------
B|------------------------------------------------------------------------------------------------------
G|------------------------------------------------------------------------------------------------------
D|------------------------------------------------------------------------------------------------------
A|-----5-----5-----5-----5------8------8------8------8-----7-----7-----7-----7-----7-----7-----7-----7--
E|--6-----6-----6-----6-----10-----10-----10-----10-----8-----8-----8-----8-----8-----8-----8-----8-----

Stave 5:

E|----------------------------------------------------------------------------------------------------------
B|----------------------------------------------------------------------------------------------------------
G|----------------------------------------------------------------------------------------------------------
D|----------------------------------------------------------------------------------------------------------
A|-----5-----5-----5-----5------8------8------8------8-----7-----7-----7---------12------12------12---------
E|--6-----6-----6-----6-----10-----10-----10-----10-----8-----8-----8-----8--13------13------12------12-----

Stave 6:

E|--------------------------------------------------------------------------
B|------10------10------10------10------10------10------10------10----------
G|----------12--------------12--------------12--------------12------12--10--
D|--12--------------12--------------12--------------12----------------------
A|--------------------------------------------------------------------------
E|--------------------------------------------------------------------------

http://www.guitartabcreator.com
Guitar Tab Creator is intended to store guitar tab created through the tool. It currently does not support in-line text editing. Any text you place in here will be lost. If you need to comment on your tab, please use the "Tab Notes" section located below.