Sound will begin in 5 seconds

Ode To Nate

Chords
01234567891011121314151617181920212223
E
B
G
D
A
E
B
0 1 2 3 4 5 6 7 8 9 10 11 12 13 14 15 16 17 18 19 20 21 22 23
Song Science #1: How Pros Use 6 Chords to Write Hit Songs
(/) Slide Up  (\) Slide Down  (h) Hammer On  (p) Pull Off  (b) Bend (r) Release (v) Vibrato

Stave 1:

E|-----------5h6p5h7--7--0--0--0h3p0------------------------
B|--------0-----------0---------------0h3p0--3--------------
G|-----0--------------0----------------------2--------------
D|-------------------------------------------0--0--0--5--4--
A|-----------------------3----------------------------------
E|--0---------------------------------3---------------------

Stave 2:

E|--------------------------------------------------------
B|--3-------------3-----0h2-----2--3--3---------10--3--3--
G|--2--------0h2-------------------4--4---------11--4--4--
D|--0--0--0------------------------4--4-----11------4--4--
A|-------------------0-------0-----2--2--9----------2--2--
E|--------------------------------------------------------

Stave 3:

E|-----------------------------------------------------------------
B|--------0h3-----3--0------------------------------------3--------
G|-------------------------0-----2h4-----4--2----------------4--0--
D|------------------------------------------------4h7-----------5--
A|-----3-------3-------------------------------5-------0--------7--
E|----------------------0-----3-------3----------------------------

http://www.guitartabcreator.com
Guitar Tab Creator is intended to store guitar tab created through the tool. It currently does not support in-line text editing. Any text you place in here will be lost. If you need to comment on your tab, please use the "Tab Notes" section located below.