Sound will begin in 5 seconds

kabaneri OP

01234567891011121314151617181920212223
E
B
G
D
A
E
B
0 1 2 3 4 5 6 7 8 9 10 11 12 13 14 15 16 17 18 19 20 21 22 23
Song Science #1: How Pros Use 6 Chords to Write Hit Songs
(/) Slide Up  (\) Slide Down  (h) Hammer On  (p) Pull Off  (b) Bend (r) Release (v) Vibrato

Stave 1:

E|-18-13p11--------------11-13-18-13p11-----------------13-11p10----------
B|----------11--------11----------------11-----------------------13-------
G|-------------10p8------------------------10p8---------------------------
D|------------------8---------------------------8-------------------------
A|------------------------------------------------------------------------
E|------------------------------------------------------------------------

Stave 2:

E|-------5-------------5-
B|-3-2-3---------3-2-3---
G|-----------------------
D|-----------------------
A|-----------------------
E|-----------------------

Stave 3:

E|-13-13-13-------------------------------13----------
B|----------13----13----13-16----16-15-------16p15p13-
G|----------------------------------------------------
D|----------------------------------------------------
A|----------------------------------------------------
E|----------------------------------------------------

Stave 4:

E|-------------------------7---------------
B|---------------------5p7---7-5---7-------
G|-6-7-4-6-7-7-------------------7---------
D|-------------7---------------------------
A|-----------------------------------------
E|-----------------------------------------

Stave 5:

E|--------------------------------------7---------
B|---------------------7-8-7-5---7----7---7-5---5-
G|-6-7-4-6-7-7-----------------7--------------7---
D|-------------7----------------------------------
A|------------------------------------------------
E|------------------------------------------------

Stave 6:

E|-------------------------------------
B|---------7-----------------7-7-------
G|-7-7-6-7-------------6---6-----------
D|-----------8-------9---9-------------
A|-------------------------------------
E|-------------------------------------

Stave 7:

E|---------------------7-----------------------------------------7-6h7p6-
B|-7-8-7-5---7-------7---7-5---5---------------7-------------------------
G|---------7-----------------7---------7-7-6-7---------------------------
D|-----------------------------------------------8-------8-9-6-9---------
A|-----------------------------------------------------------------------
E|-----------------------------------------------------------------------

Stave 8:

E|---6---9-8-6h8p6-5-------9-13----13-10-10-11-------------------------13-12-------
B|-9----------------------------13-------------11-11-13-14-14-13-11----------13-13-
G|-----8------------------------------------------------------------13-------------
D|---------------------------------------------------------------------------------
A|---------------------------------------------------------------------------------
E|---------------------------------------------------------------------------------

Stave 9:

E|-------3-------------------------6-8-------------------------6-9-8-
B|-6-5h6---------------4-4-6p4---9--------------6--------------------
G|---------3-5-------5---------6------------------8-5-6----6-8-------
D|-------------------------------------------------------------------
A|-------------------------------------------------------------------
E|-------------------------------------------------------------------

Stave 10:

E|---------6-8-8/12b13-
B|-9-8-6-9-------------
G|---------------------
D|---------------------
A|---------------------
E|---------------------

http://www.guitartabcreator.com
Guitar Tab Creator is intended to store guitar tab created through the tool. It currently does not support in-line text editing. Any text you place in here will be lost. If you need to comment on your tab, please use the "Tab Notes" section located below.