???

(/) Slide Up  (\) Slide Down  (h) Hammer On  (p) Pull Off  (b) Bend (r) Release (v) Vibrato

Stave 1:

E|--------------------------------------------------
B|--------------------------------------------------
G|--------------7--7--7--7--------------------------
D|--2--2--2--2--7--7--7--7--5--7--7--7--2--2--2--2--
A|--2--2--2--2--5--5--5--5--5--7--7--7--2--2--2--2--
E|--0--0--0--0--------------3--5--5--5--0--0--0--0--

Stave 2:

E|--------------------------------------------------
B|--------------------------------------------------
G|--------------7--7--7--7--------------------------
D|--2--2--2--2--7--7--7--7--5--7--5--7--2--2--2--2--
A|--2--2--2--2--5--5--5--5--5--7--5--7--2--2--2--2--
E|--0--0--0--0--------------3--5--3--5--0--0--0--0--

Stave 3:

E|--------------------------------------------------
B|--------------------------------------------------
G|--7--7--7--7--------------------------9--9--9--9--
D|--7--7--7--7--7--7--7--7--5--5--5--5--9--9--9--9--
A|--5--5--5--5--7--7--7--7--5--5--5--5--7--7--7--7--
E|--------------5--5--5--5--3--3--3--3--------------

Stave 4:

E|--------------------------------------------------
B|--------------------------------------------------
G|--7--7--7--7--------------------------7--9--7--9--
D|--7--7--7--7--7--7--7--7--5--5--5--5--7--9--7--9--
A|--5--5--5--5--7--7--7--7--5--5--5--5--5--7--5--7--
E|--------------5--5--5--5--3--3--3--3--------------

http://www.guitartabcreator.com
Guitar Tab Creator is intended to store guitar tab created through the tool. It currently does not support in-line text editing. Any text you place in here will be lost. If you need to comment on your tab, please use the "Tab Notes" section located below.