b l

01234567891011121314151617181920212223
E
B
G
D
A
E
B
0 1 2 3 4 5 6 7 8 9 10 11 12 13 14 15 16 17 18 19 20 21 22 23
(/) Slide Up  (\) Slide Down  (h) Hammer On  (p) Pull Off  (b) Bend (r) Release (v) Vibrato

Stave 1:

G|--4--2-----------------------------0--2-----2--------------2--------0--4--2-----------------------0--4--2-----------------2--4--2--4--------
D|--------5--------5-----2-----2--4-----------------------2--------2-----------4--2--0--2-----2--4--------------2-----2--4--------------0-----
A|-----------3--5-----------------------------------3-----------3-----------------------------------------------------------------------------
E|--------------------------------------------------------------------------------------------------------------------------------------------
B|--------------------------------------------------------------------------------------------------------------------------------------------

Stave 2:

G|--------------0--4--2--------------------------------------------5--4-----------------------------9--------------9--------------
D|--2-----2--4--------------2--0--------------0-----5-----5--5-----------5--4--------------7-----9-----9--------------7-----5-----
A|--------------------------------4--0--2--4-----------5--------3--------------5--5--6--7-----7-----------7--6--7--------3--------
E|-----------------------------------------------------------------------------------------------------------------------------3--
B|--------------------------------------------------------------------------------------------------------------------------------

Stave 3:

G|--------------------0--5--4-----------4--
D|--5--------5-----2-----------5--4--------
A|-----3--5-----3--------------------5-----
E|-----------------------------------------
B|-----------------------------------------

							http://www.guitartabcreator.com
Chords

Instruments
{"strings":[[[4,2,".",".",".",".","_",".","_",".",".",0,2,"_",2,"_",".","_",".",2,".",".",0,4,2,".",".",".",".","_",".",".",0,4,2,"_",".","_",".",".",2,4,2,4,".","_"],[".",".",5,".",".",5,"_",2,"_",2,4,".",".","_",".","_",".","_",2,".",".",2,".",".",".",4,2,0,2,"_",2,4,".",".",".","_",2,"_",2,4,".",".",".",".",0,"_"],[".",".",".",3,5,".","_",".","_",".",".",".",".","_",".","_",3,"_",".",".",3,".",".",".",".",".",".",".",".","_",".",".",".",".",".","_",".","_",".",".",".",".",".",".",".","_"],[".",".",".",".",".",".","_",".","_",".",".",".",".","_",".","_",".","_",".",".",".",".",".",".",".",".",".",".",".","_",".",".",".",".",".","_",".","_",".",".",".",".",".",".",".","_"],[".",".",".",".",".",".","_",".","_",".",".",".",".","_",".","_",".","_",".",".",".",".",".",".",".",".",".",".",".","_",".",".",".",".",".","_",".","_",".",".",".",".",".",".",".","_"]],[[".","_",".",".",0,4,2,"_",".",".",".",".",".",".",".","_",".",".",".",".",".",5,4,".",".",".",".",".",".",".",".",".",9,".",".",".",".",9,".",".",".","."],[2,"_",2,4,".",".",".","_",2,0,".",".",".",".",0,"_",5,".",5,5,".",".",".",5,4,".",".",".",".",7,".",9,".",9,".",".",".",".",7,".",5,"."],[".","_",".",".",".",".",".","_",".",".",4,0,2,4,".","_",".",5,".",".",3,".",".",".",".",5,5,6,7,".",7,".",".",".",7,6,7,".",".",3,".","."],[".","_",".",".",".",".",".","_",".",".",".",".",".",".",".","_",".",".",".",".",".",".",".",".",".",".",".",".",".",".",".",".",".",".",".",".",".",".",".",".",".",3],[".","_",".",".",".",".",".","_",".",".",".",".",".",".",".","_",".",".",".",".",".",".",".",".",".",".",".",".",".",".",".",".",".",".",".",".",".",".",".",".",".","."]],[[".",".",".",".",".",".",0,5,4,".",".",".",4],[5,".",".",5,".",2,".",".",".",5,4,".","."],[".",3,5,".",3,".",".",".",".",".",".",5,"."],[".",".",".",".",".",".",".",".",".",".",".",".","."],[".",".",".",".",".",".",".",".",".",".",".",".","."]]],"numberofstrings":5,"notes":["G","D","A","E","B"],"capo":0,"stringnotes":["G2","D2","A1","E1","B0"],"comments":["Stave 1:","Stave 2:","Stave 3:"],"timing":[["W","W","W","W","W","W",null,"W",null,"W","W","W","W",null,"W",null,"W",null,"W","W","W","W","W","W","W","W","W","W","W",null,"W","W","W","W","W",null,"W",null,"W","W","W","W","W","W","W",null,"W",null,"W","W","W"],["W",null,"W","W","W","W","W",null,"W","W","W","W","W","W","W",null,"W","W","W","W","W","W","W","W","W","W","W","W","W","W","W","W","W","W","W","W","W","W","W","W","W","W"],["W","W","W","W","W","W","W","W","W","W","W","W","W"]],"timingvisible":false,"tabcounter":13,"stave":2,"totalstaves":3,"instrument":"5bass","selectedtuning":"5bass","version":"13"}

Member for

1 week 4 days
Submitted by timbo2733 on Mon, 2021-02-22 19:55